Song name
# A B C D E F G H I J K L M N O P Q R S T U V W X Y Z

Franco - Castaway tab

CASTAWAY by Franco

Guitar I - Lead
Guitar II - Rhythm

Tuning : Drop D

Guitar I Intro (Clean)

e|--------------------------------------------------|
B|--------------------------------------------------|
G|--------------------------------------------------|
D|---------5-------------------8-------8--10--8-----|
A|-----------6--------------------10-------------10-|
D|--6-6-6-----------10-10-10------------------------|

e|----------------------------|
B|----------------------------|
G|-----------------------8----|
D|---------5-------------8----|
A|------------6---------10----|
D|-6-6-6----------------------|

Intro (Heavy)

e|----------------------------------------------------------------------------|
B|----------------------------------------------------------------------------|
G|-------5--------------5-----------------8-------------------8--10--8--------|
D|---------6--------------6------------------10--------------------------10---| --> (x2)
A|--666-----------6-66-------------1010------------10-1010--------------------|
D|--666-----------6-66-------------1010------------10-1010--------------------|

e|------------------------------------|
B|------------------------------------|
G|---10101010101010101010101010101010-|
D|---10101010101010101010101010101010-|
A|---11111111111111111111111111111111-|
D|---11111111111111111111111111111111-|

Verse

e|--------------------------------------------------------------------------------------|
B|--------------------------------------------------------------------------------------|
G|--------------------------------------------------------------------------------------|
D|--------------5----------5------------------------------8--------------8--------------|
A|------------------6--------6--------6s8---------------------10------------10-----8h10-|
D|----6--6--6-----------6---------6----------10-10-10--------------10-------------------|
     "Step to the farthest ....."

e|-------------------------------------------------------------------------------------|
B|-------------------------------------------------------------------------------------|
G|-------------------------------------------------------------------------------------|
D|---------------5----------5------------------------------8-----------8---------------|       (x2)
A|------------------6--------6-------6s8----------------------10----------10-11111010--|
D|---6--6--6------------6---------6--------10-10-10---------------10-------------------|

e|------|
B|------|
G|--10--| After two reps of the verse
D|--10--|
A|--11--|
D|--11--|
"Slowly.."
"Hopelessly"


Chorus

e|----------------------------------------------------------------------|
B|----------------------------------------------------------------------|
G|----10----------------------------------------------------------------|
D|----10-----------------------5--------------------3---------------1---| (x2)
A|----11-----------------------6--------------------3---------------1---|
D|----11-----------------------6--------------------3---------------1---|

(VERSE)
(Chorus)

Bridge

e|--------------------------------------------------------------------|
B|-------------------------8888888-9-x-9999999--888888-9-x-99999999---|
G|-------------------------xxxxxxx-x-x-xxxxxxx--xxxxxx-x-x-xxxxxxxx---| (x2)
D|-------10-----------5----5555555-6-x-6666666--555555-6-x-66666666---|
A|-------11-----------6-----------------------------------------------|
D|-------11-----------6-----------------------------------------------|


Guitar I (solo)

e|------------------------------------------------------------------------------------------------|
B|------------------------------------------------------------------------------------------------|
G|------------------------1212----------------1212-------------------1212----------------1212-----|
D|-------------------1313------1313------1313------1313--------1313-------1313------1313------1313|
A|--------------1111-----------------1111----------------1010------------------1010---------------|
D|------------------------------------------------------------------------------------------------|

e|------------------------------------------------------------------------------------------------|
B|------------------------------------------------------------------------------------------------|
G|-------------------1111-------------------1111--------------------121213131212--------12121313--|
D|-------------1313-------1313-------1313--------1313---------1313----------------1313------------|
A|-------1010-------------------1010---------------------1010-------------------------------------|
D|------------------------------------------------------------------------------------------------|

Repeat x2 up till ------------------------------------^

Then end with
e|--------|
B|--------|
G|---11~--|
D|--------|
A|--------|
D|--------|

(Chorus)

Outro

e|----------------------------------|
B|----------------------------------|
G|----------------------------------|
D|--10---------------------------5--| (4x)
A|--11---------------------------6--|
D|--11---------------------------6--|

End with

e|---|
B|---|
G|---|
D|-4-|
A|-4-|
D|-4-|






Guitar II

Intro (Heavy)

e|---------------------|
B|---------------------|
G|---------------------|
D|----6-------10-------| (x2)
A|----6-------10-------|
D|----6-------10-------|

Then..
e|-------------|
B|-------------|
G|-55555555555-|
D|-66666666666-|
A|-44444444444-|
D|-------------|


Verse

e|---------------------------------------------------------------------------------|
B|---------------------------------------------------------------------------------|
G|---------------------------------------------------------------------------------|
D|------------------------------------5-5-6-6--5-5-------------5-5--6-6--5-5-------| <-You will only
A|--------------------------------6-6--------------6-6----6-6-----------------6-6--|  do this on
D|---------------------------------------------------------------------------------|  this part
                               ".. of             what   you    might     see......" of the verse.

e|--------------------------------------------------------------33333--------------|
B|--------------------------------------------------------------44444--------------|
G|------------3----5-6-5----------------3--------5--3----------------------5555555-|
D|--------6-----6-----------6--------6-------6-----------------------------6666666-|
A|-----3--------------------------3----------------------------------------4444444-|
D|---------------------------------------------------------------------------------|
    " so carelessly...                                                     slowly.."
    " High strung but I...                                              hopelessly.."
V2  " A mountain .....                                                     over..    "

Chorus

e|-------------------------------------------------------------|
B|-------------------------------------------------------------|
G|-------5-----------------------------------------------------|
D|-------6---------------6------------------3----------------1-| (x2)
A|-------4---------------6------------------3----------------1-|
D|-----------------------6------------------3----------------1-|



Bridge
e|--------------------------------------------------|
B|--------------------------------------------------|
G|-------5------------------------------------------|
D|-------6-----------------6-------------------1----|   (x2)
A|-------4-----------------6-------------------1----|
D|-------------------------6-------------------1----|

Solo

e|---------------------------------------------------------------|
B|---------------------------------------------------------------|
G|---------------------------------------------------------------|
D|----11--------------10----------------------4--------------3---|
A|----11--------------10----------------------4--------------3---|
D|----11--------------10----------------------4--------------3---|

(Chorus)

Outro
e|------------------------------------|
B|------------------------------------|
G|-12s8-------------12s8------12s8s6s5|
D|--xsx--------------xsx-------xsxsxsx|
A|-10s6-------------10s6------10s6s4s3|
D|------------------------------------|

e|-----------------------------------|
B|-----------------------------------|
G|-12s8-------------12s8------6s5s3s5|
D|--xsx--------------xsx------xsxsxsx|
A|-10s6-------------10s6------4s3s1s3|
D|-----------------------------------|

e|---------------------------------------|
B|---------------------------------------|
G|-12s8-------------12s8------12s13s12s13|
D|--xsx--------------xsx-------xs-xs-xs-x|
A|-10s6-------------10s6------10s11s10s11|
D|---------------------------------------|

End in
e|---|
B|---|
G|---|
D|-4-|
A|-4-|
D|-4-|
Tap to rate this tab
# A B C D E F G H I J K L M N O P Q R S T U V W X Y Z