Song name
# A B C D E F G H I J K L M N O P Q R S T U V W X Y Z

Franco - Drifter tab

Drifter
Franco
Soul Adventurer (2013)

i know this is just an interlude but the guitar is still nice to play and its good
for relaxing. so............ here you go

Drop C#

D#
A#
F#
C#
G#
C#

Rhythm
--------------------------------------|
--------------------------------------|
-4-x--x-x-----------------------------| 9x
-2-x--x-x-6-x--x-x-4-x--x-x-2-x--x-x--|
-2-x--x-x-6-x--x-x-4-x--x-x-2-x--x-x--|
----------6-x--x-x-4-x--x-x-2-x--x-x--|

Lead (comes in the third time the rhythm is played)
-9--7h9p7-(7)-7h9p7--9-9/11--12--11---|
---------9----------------------------|
--------------------------------------|
--------------------------------------|
--------------------------------------|
--------------------------------------| } these two riffs alternate.
                                        } play 4 cycles of these two riffs
-9--7h9p7-(7)-7h9p7--9-9/11~----------| }
---------9----------------------------|
--------------------------------------|
--------------------------------------|
--------------------------------------|
--------------------------------------|

END

Short song. great riff.

************************************

| /   slide up
| \   slide down
| h   hammer-on
| p   pull-off
| ~   vibrato
| +   harmonic
| x   Mute note
| b   Bend
| pb  Pre-bend
| br  Bend release
| pbr Pre-bend release
| brb Bend release bend

************************************
Tap to rate this tab
 
# A B C D E F G H I J K L M N O P Q R S T U V W X Y Z