Song name
# A B C D E F G H I J K L M N O P Q R S T U V W X Y Z

Franco - To Survive tab

This is Franco' s "To Survive" from the album "Soul Adventurer" released in 2013. Tabbed 
by ear

Drop C# tuning. C# G# C# F# A# D#

Intro
--------------------------------------------------------------------------|
--------------------------------------------------------------------------|
-------------------------------------------------9-9-9-9---------7-7-7-7--|
-9-9-9-9-9-9-9-9-11-11-11-11-12-12-12-12-5-5-5-5---------5-5-5-5----------| 3x
-9-9-9-9-9-9-9-9-9--9--9--9--9--9--9--9--5-5-5-5-7-7-7-7-5-5-5-5-5-5-5-5--|
-9-9-9-9-9-9-9-9-9--9--9--9--9--9--9--9--5-5-5-5---------5-5-5-5----------|

end the intro with

--------------------------------------------------|
--------------------------------------------------|
--------------------------------------------------|
-9-9-9-9-9-9-9-9-11-11-11-11-12-12-12-12-5~-------|
-9-9-9-9-9-9-9-9-9--9--9--9--9--9--9--9--5~-------|
-9-9-9-9-9-9-9-9-9--9--9--9--9--9--9--9--5~-------|

Verse
----------------------|
---7------------------|
--7-------------------|
-9----7----5--5/7-7---| 4x then pause. after pause, 4 more times then chorus
------7----5--5/7-7---|
------7----5--5/7-7---|

Chorus
     -----------------------------------|
     -----------------------------------|
     -----------------------------------|
     -0-----7-----10-----9--------7-----|
     -0-----7-----10-----9--------7-----|
     -0-----7-----10-----9--------7-----|
...survive..to....make...less..freedom


Verse 2
just play with these chords

-----------|
-7--7------|
-7--7------|
-----------|
-5--5------|
-5---------|

then

----
----
----
-5-- x16
-5--
-5--

CHORUS

Bridge
------------------------------------------------------------|
------------------------------------------------------------|
------------------------------------------------------------| 4x
-2-2-2-2-x-x-x-2-2-x-2-2-x-2-5-5-5-5--x-x-x--x-7-x-7-7-x-7--|
-2-2-2-2-x-x-x-2-2-x-2-2-x-2-5-5-5-5--x-x-x--x-7-x-7-7-x-7--|
-2-2-2-2-x-x-x-2-2-x-2-2-x-2-5-5-5-5--x-x-x--x-7-x-7-7-x-7--|

on the fourth time, strum the last chord continuously instead of mixed with muted nutes

CHORUS (clean, no distortion)
CHORUS 2x (distortion)

Outro
Fig. a
-------------------------|
-------------------------|
-------------------------|
---4---------------5-4---|
--5---3-5---2-3----------|
-0---0-----0------0------|

Fig b.
---------------------------|
---------------------------|
---------------------------|
-5-5-5-4-5-5-5-5-5-4-5-5---|
-5-5-----5-5-5-5-----5-5---|
-5-5-----5-5-5-5-----5-5---|

play fig.a 3 x then play fig.b 2x then play fig.a 7x
Tap to rate this tab
# A B C D E F G H I J K L M N O P Q R S T U V W X Y Z