Song name
# A B C D E F G H I J K L M N O P Q R S T U V W X Y Z

Franco - Better Days tab

better days franco

tab by:michealslash

drop C#
strum intro mga brader

------------------------------------|
------------------------------------|
---7------5-----9------7------------|
---6------4-----7------7------------|
---0------0-----0-------------------|
---0------0-----0-------------------|



---0-4----0-4------0-4--7---0-4------0-4--7--------|
---------------7----------------7------------4-----|
-------7-------------------------------------------|
---------------------------------------------------|
---------------------------------------------------|
---------------------------------------------------|


--7--------5-----------------------------|
--7--------5-----------------------------|
--7--------5-----------------------------|
-----------------------------------------|
-----------------------------------------|
-----------------------------------------|

 verse
----------------------------------------------|
--5------4-----2------------4-------9---------|
--7------6-----4------------6-------11--------|
--5------4-----2------------4-------8---------|
--6------5-----3------------5-------10--------|
----------------------------------------------|


solo
 rhytem rani kamo nag hearing sa solo mga brader

tayminga ra ninyo ni
-5/777---5/777-----9-/-7-/-5-555--444---------------------|
-5/777---5/777-----9-/-7-/-5-555--444---------------------|
-5/777---5/777-----9-/-7-/-5-555--444---------------------|
----------------------------------------------------------|
----------------------------------------------------------|
----------------------------------------------------------|

    under the sun
-9----4----7------2-----0-------------------|
-9----4----7------2-----0-------------------|
-9----4----7------2-----0-------------------|
--------------------------------------------|
--------------------------------------------|
--------------------------------------------|


then

better days to come................

-9999-------000-------------------------------|
-9999-------000-------------------------------|
-9999-------000-------------------------------|
----------------------------------------------|
----------------------------------------------|
----------------------------------------------|

repet kuros
Tap to rate this tab
# A B C D E F G H I J K L M N O P Q R S T U V W X Y Z