Song name
# A B C D E F G H I J K L M N O P Q R S T U V W X Y Z

Francois Beranger - En Avant tab

Francois Beranger - En avant

Piano Intro
Bm

then
e|---------------------------------------------------|
B|----0--0---0--0----0--0----------------------------|
G|---------------------------------------------------|
D|---------------------------------------------------|
A|--2------2-------2------2--------------------------|
E|---------------------------------------------------|
    

Intro
e|--15------15-14-----14-12-----12-10----------------|
B|------12--------12--------12---------12------------|
G|---------------------------------------------------|
D|---------------------------------------------------|
A|---------------------------------------------------|
E|---------------------------------------------------|
    

Verse
e|---------------------------------------------------|
B|--0-12--12-0-12---12-0-12---12-0-------------------|
G|---------------------------------------------------|
D|---------------------------------------------------|
A|---------------------------------------------------|
E|---------------------------------------------------|
    h     h    h    h     h    h


Prechorus
e|---------------------------------------------------|
B|---------------------------------------------------|
G|---------------------------------------------------|
D|-----14-14-14----12----10-10-10-----9--------------|
A|-----15-15-15----12----10-10-10----10--------------|
E|--12----------10-----8-----------7-----------------|


Chrous
G D F C
G D F CG


then:

Verse
Prechorus
chorus
solo (Play Chorus)
Intro
Verse
Prechorus
Chorus


Last verse "en avant pour le grand bond en arriere"
e|---------------------------------------------------|
B|--12------10------8------10------------------------|
G|-----0--0----0--0---0--0----0----------------------|
D|---------------------------------------------------|
A|---------------------------------------------------|
E|---------------------------------------------------|


Outro
e|---------------------------------------------------|
B|--12---10---10---8---------------------------------|
G|-----0----0----0---0-------------------------------|
D|---------------------------------------------------|
A|---------------------------------------------------|
E|---------------------------------------------------|


Fin 
e|------------|
B|--12--------|
G|---0--------|
D|------------|
A|------------|
E|------------|

h= harmonic

Questions, Comments, improvement:
beranger80@hotmail.com

http://www.myspace.com/francoisberanger
Tap to rate this tab
 
# A B C D E F G H I J K L M N O P Q R S T U V W X Y Z