Song name
# A B C D E F G H I J K L M N O P Q R S T U V W X Y Z

Francois Campion - Nouvelles Decouvertes Sur La Guitarre - Prelude tab

Prelude - Francois Campion
from "Nouvelles decouvertes sur la Guitarre" - 1705
           
TablEdited by Hamilcar

           +    = trill 
           )    = mordent		

Tuning : E A# D G C F 	Time Signature: 4/4

 |       |       |       |        |       |       |       |        
|2---------2-0-------------------|--------------------------------|
|2-------------2-3)--------------|--------0---2-----------3-------|
|--------------------3---2+--0---|----2-----------3---0-------0---|
|--------------------------------|4---------------5---------------|
|--------------------------------|--------------------------------|
|--------------------------------|--------------------------------|

 |       |       |       |        |       |       |       |        
|--------------------------------|------------0---0---------------|
|--------2---------------0---2---|2-------------2-----2-----------|
|----2---------------0-----------|2---------------------------0---|
|3-----------3---1---------------|0-------------------------------|
|--------------------------------|------------------------1-------|
|--------------------------------|--------------------------------|

 |       |       |       |        |       |       |       |        
|----2---2-------------------0---|----------0-2-4-5-----------5---|
|3-----3-----3-------------------|2+------------------------------|
|--------------------2-----------|--------------------------------|
|------------------------3-------|--------------------------------|
|2---------------2---------------|0-----------------------0-------|
|--------------------------------|--------------------------------|

 |       |       |       |        |       |       |       |        
|4---2---1-----------2-0-2-------|----3---3-----------2---2-------|
|0-------2-------------------2---|3-----3---------------2---------|
|--------2-----------------------|--------------------------------|
|--------------------------------|--------------------------------|
|------------2---1---------------|2-----------2---0-----------0---|
|--------------------------------|--------------------------------|

 |       |       |       |        |       |       |       |        
|----1---1---2-----4---4---5---5-|--4---4---2---2---0---0---------|
|------0-------------2-------0---|----2-------0-------------3---3-|
|2-----------0-----------0-------|--------------------3-------2---|
|----------------4---------------|3-------1-------0---------------|
|--------------------------------|------------------------2-------|
|--------------------------------|--------------------------------|

 |       |       |       |        |       |       |       |        
|------0-----0-------------------|--------------------2---0---4---|
|2---3---0-----------3-------2---|--------1---2---4---------------|
|--------2-------3-------2-------|----0---------------------------|
|----------------5-------3-------|2-----------0-----------0-------|
|0-------------------------------|----------------3---------------|
|--------------------------------|--------------------------------|

 |       |       |       |        |       |       |       |        
|2---5---4-----------2-------0---|--------------------------------|
|------------------------1-------|2---4---1+------2---3-----------|
|------------2---4-------2-------|3---0---2---0---2-------4+------|
|2-------3-------5---------------|----------------4-------5---3---|
|--------------------------------|--------------------------------|
|--------------------------------|--------------------------------|

 |       |       |       |        |       |       |       |        
|--------------------0-----------|----2---------------4---1+------|
|0---2---3---------------2+------|--------4+------------------0---|
|----------------2-----------2---|0-------5-------2---------------|
|1---0---------------------------|------------------------0-------|
|--------2---0-----------0-------|------------0-------------------|
|--------------------------------|--------------------------------|

 |       |       |       |        |       |       |       |        
|--------2---------------1---2---|2------------------------------||
|----2---------------0-----------|2------------------------------||
|----------------2---------------|-------------------------------||
|--------------------------------|-------------------------------||
|0-----------0-------------------|-------------------------------||
|--------------------------------|-------------------------------||


http://www.classicsonline.com/composerbio/Francois_Campion/
Tap to rate this tab
 
# A B C D E F G H I J K L M N O P Q R S T U V W X Y Z