Song name
# A B C D E F G H I J K L M N O P Q R S T U V W X Y Z

Francois Joseph Gossec - Tambourin tab

Tambourin - Francois Joseph Gossec (1734-1829)
(arranged by Andrew Lloyd)

guitar tab & fingering by Weed - weed@wussu.com - 10 May 2001

accompanying MIDI file on the Classical Guitar Tablature page

******************************************************************************

Notes + Tab Explanation

left hand fingering below tab -   1 - 1st (fore) finger
                                  2 - 2nd (index) finger
                                  3 - 3rd (ring) finger
                                  4 - 4th (little) finger (pinkie)

 2h3     hammer on from the 2nd fret to the 3rd (acciacatura)
12h13    hammer on from the 12th fret to the 13th (acciacatura in sheet)
 ===     tied note (note held/sustained)
 r       rest for half a beat (quaver, eighth note)

 CI      barre on the 1st fret
 CIII    barre on the 3rd fret
 CVII    barre on the 7th fret
 CVIII   barre on the 8th fret
 CX      barre on the 10th fret

bar 43   F (1st string, 1st fret) - sheet has D (2nd string, 3rd fret) (??!)
bar 54   barre top 3 strings with 4th finger on 10th fret
bar 81   baree top 4 strings only

the second part, which begins at bar 51, is more difficult - there are various
fingering arrangements possible (eg starting bar 51 with a barre on the 5th
fret), and hammers and pull-offs may be needed to play the demi-semi-quavers
(thirty-second notes) in time

******************************************************************************

Tambourin (Francois Joseph Gossec)

Allegro vivo  -  key F Major  -  2/4 time

1   |   ,   |   ,      |   ,   |   ,      |   ,   |   ,      |   ,   |   ,
e|------------------|------------------|--------------1---|------------------|
B|------------------|------------------|------------------|------------------|
G|------------------|------------------|------2-0---------|------------------|
D|------------------|------------------|--3-------3-------|--3-----------3===|
A|2h3---3---3---3---|2h3---3---3---3---|------------------|------------------|
E|--1---1---1---1---|--1---1---1---1---|--1---1---1---1---|--1---1---1---1---|
  2 3   3   3   3    2 3   3   3   3      4   2   4   1      4           4
    1   1   1   1      1   1   1   1      1   1   1   1      1   1   1   1

            CI.....................
5   |   ,   |   ,      |   ,   |   ,      |   ,   |   ,      |   ,   |   ,
e|------------------|----------------0-|--1-------0-------|------------------|
B|----------1---3---|--1-----------3---|------------------|--3-------1-------|
G|--2---3---2---3---|--2---------------|------------------|------------------|
D|=====-5-----------|------------------|--0---3-------3---|------3-------3---|
A|------------------|------------------|----------3-------|--1-------0-------|
E|--1-------1---1---|--1---1---1-------|------------------|------------------|
    2   2   1   4      1           4      1                  4       1
        4   2   3      2                      3   2   3      1   3       3
    1       1   1      1   1   1

9   |   ,   |   ,      |   ,   |   ,      |   ,   |   ,      |   ,   |   ,
e|------------------|------------------|--------------1---|------------------|
B|------1---3-------|------------------|------------------|------------------|
G|--0---2---3---0---|--2-------0-------|------2-0---------|------------------|
D|------------------|--3-------2-------|--3-------3-------|--3-----------3===|
A|--1---0-------1---|------3-------3---|------------------|------------------|
E|----------3-------|------------------|--1---1---1---1---|--1---1---1---1---|
        2   4          2                  4   2   4   1      4           4
        3   3          4       1        
    1       2   1          3       4      1   1   1   1      1   1   1   1

            CI.....................
13  |   ,   |   ,      |   ,   |   ,      |   ,   |   ,      |   ,   |   ,
e|------------------|----------------0-|--1-------0-------|------------------|
B|----------1---3---|--1-----------3---|------------------|--3-------1-------|
G|--2---3---2---3---|--2---------------|------------------|------------------|
D|=====-5-----------|------------------|--0---3-------3---|------3-------3---|
A|------------------|------------------|----------3-------|--1-------0-------|
E|--1-------1---1---|--1---1---1-------|------------------|------------------|
    2   2   1   4      1           4      1                  4       1
        4   2   3      2                      3   2   3      1   3       3
    1       1   1      1   1   1

17  |   ,   |   ,      |   ,   |   r      |   ,   |   ,      |   ,   |   ,
e|------------------|------------------|------------------|------------------|
B|------------------|------------------|------------------|------------------|
G|--3---0-----------|------------------|--3-----2-3-----2-|--0-------2-------|
D|--0-------3---2---|--3===========----|--5-----3-5-----3-|--2-------3-------|
A|--1-------3-------|------------------|--3==============-|--3==============-|
E|------------------|------1---1-------|------------------|------------------|
    4       4   2      4                  1     1 1     1            1
            3                             4     3 4     3    1       3
    1                      1   1          2                  2

21  |   ,   |   ,      |   ,   |   ,      |   ,   |   ,      |   ,   |   ,
e|------------------|------------------|------------------|--------------0---|
B|------------------|------------------|--0---------------|--0---1---3-------|
G|--3-----2-3---2---|--0-------2-------|--------2-0-----2-|--------------0---|
D|------------------|--2-------3-------|------------------|--0---2---3-------|
A|--------------0---|--1-------0-------|--------3-2-----3-|------------------|
E|--3-----1-3-------|------------------|--3===============|=====-------------|
    4     2 4   4              2                2       2        1   4
                       3       4                4 1     4        2   3
    3     1 3          1                  3

25  |   ,   |   ,      |   ,   |   ,      |   ,   |   ,      |   ,   |   ,
e|------------------|------------------|------------------|------------------|
B|--1---------------|----------0---1---|------------------|------------------|
G|------------------|--0---2-----------|--3-----2-3---2---|--0-------2-------|
D|--2-----0-2---3---|------------------|--5-----3-5---3---|--2-------3-------|
A|------------------|------------------|--3-------3-------|--3---------------|
E|------------------|------------------|------------------|------------------|
    1                      2       1      1     1 1   1              1
    2       2   3                         4     3 4   3      1       3
                                          2       2          2

29  |   ,   |   ,      |   ,   |   ,      |   ,   |   ,      |   ,   |   ,
e|------------------|------------------|------------------|--------------0---|
B|------------------|------------------|--0---------------|--0---1---3-------|
G|--3-----2-3-----2-|--0-------2-------|--------2-0-----2-|--------------0---|
D|------------------|--2-------3-------|------------------|--0---2---3-------|
A|----------------0-|--1-------0-------|--------3-2-----3-|------------------|
E|--3-----1-3-------|------------------|--3=====================-------------|
    4     2 4     4            4                2       1        1   3
                       2       1                4 1     4        2   3
    3     1 3          1                  3

33  |   ,   |   ,      |   ,   |   ,      |   ,   |   ,      |   ,   |   ,
e|------------------|------------------|--------------1---|------------------|
B|--1=====================-0-----------|------------------|------------------|
G|------------------|----------3---0---|------2-0---------|------------------|
D|--2---------------|------------------|--3-------3-------|--3-----------3===|
A|------------------|--3-----------1---|--0---------------|------------------|
E|----------3-------|----------0-------|--1---1---1---1---|--1---1---1---1---|
    1                          4          4   2   4   1      4           4
    2
            3          3           1      1   1   1   1      1   1   1   1

            CI.....................
37  |   ,   |   ,      |   ,   |   ,      |   ,   |   ,      |   ,   |   ,
e|------------------|----------------0-|--1-------0-------|------------------|
B|----------1---3---|--1-----------3---|------------------|--3-------1-------|
G|--2---3---2---3---|--2---------------|------------------|------------------|
D|=====-5-----------|------------------|--0---3-------3---|------3-------3---|
A|------------------|------------------|----------3-------|--1-------0-------|
E|--1-------1---1---|--1---1---1-------|------------------|------------------|
    2   2   1   4      1           4      1                  4       1
        4   2   3      2                      3   2   3      1   3       3
    1       1   1      1   1   1

41  |   ,   |   ,      |   ,   |   ,      |   ,   |   ,      |   ,   |   ,
e|------------------|------------------|--------------1---|------------------|
B|------1---3-------|------------------|------------------|------------------|
G|--0---2---3---0---|--2-------0-------|------2-0---------|------------------|
D|------------------|--3-------2-------|--3-------3-------|--3-----------3===|
A|--1---0-------1---|------3-------3---|------------------|------------------|
E|----------3-------|------------------|--1---1---1---1---|--1---1---1---1---|
        2   4          2                  4   2   4   1      4           4
        3   3          4       1        
    1       2   1          3       4      1   1   1   1      1   1   1   1

            CI.....................
45  |   ,   |   ,      |   ,   |   ,      |   ,   |   ,      |   ,   |   ,
e|------------------|----------------0-|--1-------0-------|------------------|
B|----------1---3---|--1-----------3---|------------------|--3-------1-------|
G|--2---3---2---3---|--2---------------|------------------|------------------|
D|=====-5-----------|------------------|--0---3-------3---|------3-------3---|
A|------------------|------------------|----------3-------|--1-------0-------|
E|--1-------1---1---|--1---1---1-------|------------------|------------------|
    2   2   1   4      1           4      1                  4       1
        4   2   3      2                      3   2   3      1   3       3
    1       1   1      1   1   1

49  |   ,   |   ,      |   ,   |   r   
e|------------------|------------------|
B|------------------|------------------|
G|--3---0-----------|------------------|
D|--0-------3---2---|--3===========----|
A|--1-------3-------|------------------|
E|------------------|------1---1-------|
    4       4   2      4                
            3                          
    1                      1   1       

51  |       ,       |       ,          |       ,       |       ,
e|--8-----------------------0-------|----------0-------8-------0-------|
B|--------------5-------------------|--8-------------------------------|
G|--0-------5-7---7-5---------------|--0---------------0---------------|
D|------------------5---------------|----------------------------------|
A|--7---------------7---------------|--7---------------7---------------|
E|--------------------------8-------|----------8---------------8-------|
    4       1 3 1 4 1                  4               4    
                    1
    2               3       3          2       3       2       3

                                       CX..............................
53  |       ,       |       ,          |       ,       |       ,
e|--1---------0-1-0---------1-------|------------------10--------------|
B|----------3-------3---------------|--10------------------------------|
G|--2---------------2---------------|----------10--------------10------|
D|--0---------------0---------------|--0---------------7---------------|
A|----------3---------------3-------|----------------------------------|
E|----------------------------------|----------8---------------8-------|
    2       4   1   4       1          4       4       4       4
    1               2                                  1
            3               3                  2               2

                            CIII.......................
55  |       ,       |       ,          |       ,       |       ,
e|--3-------0-1-3-1-0-------3-------|--5---------3-5-3-1-------5-------|
B|----------------------------------|----------6-----------------------|
G|------------------0---------------|------------------2---------------|
D|--2-------------------------------|--3-------------------------------|
A|----------3---------------3-------|----------3---------------3-------|
E|----------------------------------|----------------------------------|
    4         1 4 1         1          3       4 1 3 1 1       4
    2       3               1          1       1       2       1

57  |       ,       |       ,          |       ,       |       ,
e|--7-----------7---3-------10------|--12----------10--8---7---5-------|
B|--6-------8-10-10-0---------------|------------------------------8---|
G|----------------------------------|------------------0-------5-------|
D|--0---------------0---------------|----------------------------------|
A|----------------------------------|----------7-----------------------|
E|----------8---------------8=======|=========-------------------------|
    4           1   1       3          4           4   3   2   1   4
    3       3 4   4                                            1
            2               1                  1

59  |       ,       |       ,          |       ,       |       ,
e|--5---7---8---5---7---8---10--7---|--12----------10--8---7---5-------|
B|--6-----------------------0-------|------------------------------8---|
G|------------------0-------10------|----------9-------0-------5-------|
D|----------7-----------------------|--10------------------------------|
A|----------------------------------|----------------------------------|
E|----------------------------------|----------------------------------|
    1   3   4   1   3   4   4   1       4           4   3   2  1   4
    2       2               3           2      1               1


61  |       ,       |       ,          |       ,       |       ,
e|--5---7---8---5---7---8---10--7---|--8===============================|
B|--6-----------------------0-------|----------------------------------|
G|------------------0-------10------|--9-------7-----------------------|
D|----------7-----------------------|------------------10------9-------|
A|----------------------------------|----------------------------------|
E|----------------------------------|----------------------------------|
    1   3   4   1   3   4   4   1      2
    2       2               3          3       1       4       3

        CVIII...........................................................
63  |       ,       |       ,          |       ,       |       ,
e|=====-10------8-------------------|--------------------------13------|
B|----------11------10--11--8---10--|----------10--8-------------------|
G|------------------9-------9-------|--10--------------10--------------|
D|--8===============================|----------------------------------|
A|----------------------------------|--12------8-------8-------8-------|
E|----------------------------------|----------------------------------|
        3   4   1   3   4   1   3      3       4   1   2       4
    1               2       2          4       1       1       1

    ..........................................         CVIII............
65  |       ,       |       ,          |       ,       |       ,
e|----------------------------------|----------6-------8-------10------|
B|----------------------------------|--10------8-------10------11------|
G|--10=====================-10======|=========-------------------------|
D|--10------10------10------10------|--10------------------------------|
A|--8-------8-------8-------8-------|----------8-------8-------8-------|
E|----------------------------------|----------------------------------|
    3                       3          4       1       1       3
    2       2       2       2          2       4       4       4
    1       1       1       1                  3       1       1

    ........                                           CX..............
67  |       ,       |       ,          |       ,       |       ,
e|--8======================-10--12--|--13--------------12--------------|
B|--10=====================---------|----------------------------------|
G|----------------------------------|----------10--------------10------|
D|----------------------------------|--12--------------10--------------|
A|--8-------8-------8---------------|----------------------------------|
E|----------------------------------|----------------------------------|
    1                       3   4      4               4       1
    2                                          1
    1       1       1                  2               1

                    CVII..............................
69  |       ,       |       ,          |       ,       |       ,
e|--10--------------8---------------|----------8-------10--------------|
B|----------------------------------|--8---------------11------8-------|
G|----------10--------------10------|------------------0---------------|
D|--8---------------7---------------|--9-------7---------------9-------|
A|----------------------------------|----------------------------------|
E|----------------------------------|----------------------------------|
    4               2                  2       2       3       2
    1       3       1       4          3       1       4       1

                    CVIII...........           CVIII....................
71  |       ,       |       ,          |       ,       |       ,
e|----------------------------------|--------------------------13------|
B|--10=============-7==============-|----------10--8-------------------|
G|--10=============-8==============-|--10--------------10--------------|
D|----------10----------------------|--10------------------------------|
A|----------------------------------|----------8-------8-------8-------|
E|--------------------------8-------|----------------------------------|
    4               1                  3       4   1   2       4
    3       2       2       1          2       1       1       1

    ..........................................         CVIII............
73  |       ,       |       ,          |       ,       |       ,
e|----------------------------------|----------6-------8-------10------|
B|----------------------------------|--10------8-------10------11------|
G|--10=====================-10======|=========-------------------------|
D|--10------10------10------10------|--10------------------------------|
A|--8-------8-------8-------8-------|----------8-------8-------8-------|
E|----------------------------------|----------------------------------|
    3                       3          4       1       1       3
    2       2       2       2          2       4       4       4
    1       1       1       1                  3       1       1

    ........                                           CX..............
75  |       ,       |       ,          |       ,       |       ,
e|--8======================-10--12--|--13--------------12--------------|
B|--10=====================---------|----------------------------------|
G|----------------------------------|----------10--------------10------|
D|----------------------------------|--12--------------10--------------|
A|--8-------8-------8---------------|----------------------------------|
E|----------------------------------|----------------------------------|
    1                       3   4      4               4       1
    2                                          1
    1       1       1                  2               1

                    CVII...........
77  |       ,       |       ,          |       ,       |       ,
e|--10--------------8---------------|--6-------3-------1-------0-------|
B|----------------------------------|--3-------------------------------|
G|----------10--------------10------|--------------------------0-------|
D|--8---------------7---------------|----------------------------------|
A|----------------------------------|------------------3---------------|
E|----------------------------------|----------------------------------|
    4               2                  4       1       1
    1       3       1       4          1               3

79  |       ,       |       ,          |       ,       |       ,
e|--1-----------------------0-------|--1-----------------------0-------|
B|------------------1---------------|------------------1---------------|
G|----------2---------------3-------|--2-------2---------------3-------|
D|--3-------------------------------|--3-------------------------------|
A|--------------------------3-------|--------------------------3-------|
E|----------------------------------|----------------------------------|
    1                                  1
            2       1       4          2       2       1       4
    3                       3          3                       3

                    CX.....
81  |       r       |       r          |       ,       |       ,
e|--1---------------12h13-----------|---------------------------------||
B|------------------10--------------|---------------------------------||
G|--2-------------------------------|--2=============================-||
D|--3---------------10--------------|---------------------------------||
A|----------------------------------|--3=============================-||
E|----------------------------------|--1=============================-||
    1               3  4               2
    2               1                  3
    3               1                  1

******************************************************************************

Weed - May 10, 2001
Tap to rate this tab
 
# A B C D E F G H I J K L M N O P Q R S T U V W X Y Z