Song name
# A B C D E F G H I J K L M N O P Q R S T U V W X Y Z

Frani - Gitara Shen Da Me tab

Solo      G
E|--3--3--3-----------2--2-----------0--0----------------|
B|--------------0--------------0--------------0-----3-3--|
G|-----------------0--------------0--------------0-----0-|
D|-------------------------------------------------------|
A|-------------------------------------------------------|
E|-----------0--------------0--------------0-------------|
              G
E|--3--3--3-----------2--2--------0--0-----------------|
B|--------------0-----------0-----------0-----3--3-----|
G|-----------------0-----------0-----------0--------0--|
D|-----------------------------------------------------|
A|-----------------------------------0-----------------|
E|-----------3-----------------------------------------|


     D                      F#m
    Lamazi ferebi, me geperebi,
    Bm                     A
    nazi bgerebit, shenc meperebi
    G                                D
    mze rom chava da, chven rom vggalatobs,
    E                         A
    mtvare amova, is ar gvgalatobs...

    xandaxan ertad rogor vtamashobt,
   xandaxan cxaredac rogor vkamatobt,
    xandaxan sxvebsac, rogor vagijebt,
    roca movdivar vgrdznob chems nabijebs,
    Shen pam, param parampa.
    shentvis o ramdenjer mitkvams, ramdenjerad ginda mitkvams akordi...
   Bm          E
   Shen Da Mee
   G  A
   Chven Tu Gagvachina mzem
   Me Da Sheen Chven tu gagvachina mzem
   ragulianad ragulianad, ragulianad vmgerit xandaxan...

E|--5--5--5--5--5--5--3--5--5--5--3--3--3--3--2--3--3--3--2--|
B|-----------------------------------------------------------|
G|-----------------------------------------------------------|
D|-----------------------------------------------------------|
A|-----------------------------------------------------------|
E|-----------------------------------------------------------|

E|--------10--------10-----7--10--|
B|--7--8------7--8---------7------|
G|----------------------7---------|
D|--------------------------------|
A|--------------------------------|
E|--------------------------------|
Tap to rate this tab
# A B C D E F G H I J K L M N O P Q R S T U V W X Y Z