Song name
# A B C D E F G H I J K L M N O P Q R S T U V W X Y Z

Franja De Gaza - Walking tab

WALKING  
    
E |------------------|------------7/8--|-------------------|
B |------8-7-----7/8-|-----8-7---------|-------------------|
G |------------------|-----------------|-------------------|
D |------------------|-----------------|---5----5----------|
A |---7--------5-----|---7------5------|-3----2------------|
E |-5----------------|--5--------------|----------3-0------|

E |------------------|------------7/8---|--------------------|
B |------8-7-----7/8-|-----8-7----------|--------------------|
G |------------------|------------------|--------------------|
D |------------------|------------------|--5----5----5-------|
A |---7--------5-----|---7------5-------|3----2----0---------|
E |-5----------------|--5---------------|--------------3-0---|


E |------------------|------------7/8-------|--------------------|
B |------8-7-----7/8-|-----8-7----7/8\7p5---|--------------------|
G |------------------|----------------------|--------------------|
D |------------------|----------------------|--5----5----5-------|
A |---7--------5-----|---7------5-----------|3----2----0---------|
E |-5----------------|--5-------------------|--------------3-0---|


E |--0--0-0-|-0-0-0----|-0-0-0-0---|--0-0-0------------------|
B |--1--0-1-|-1-0-1----|-1-0-1-0---|--1-1-1------------------|
G |--2--2-2-|-2-2-2----|-2-2-2-2---|--2-2-2------------------|
D |--2--2-2-|-2-2-2----|-2-2-2-2---|--2-2-2------------------|
A |--0--0-0-|-0-0-0----|-0-0-0-0---|--0-0-0------------------|
E |---------|----------|-----------|-------------------------|


E |--2--0-2-|-2-0-2----|-2-0-2-0---|--2-3-2-0----------------|
B |--3--3-3-|-3-3-3----|-3-3-3-3---|--3-3-3-3----------------|
G |--2—-2-2-|-2-2-2----|-2-2-2-2---|--2-2-2-2----------------|
D |--0--0-0-|-0-0-0----|-0-0-0-0---|--0-0-0-0----------------|
A |--0--0-0-|-0-0-0----|-0-0-0-0---|--0-0-0-0----------------|
E |---------|----------|-----------|-------------------------|

E |--0--0-0-|-0-0-0----|-0-0-0-0---|--0-0-0------------------|
B |--1--0-1-|-1-0-1----|-1-0-1-0---|--1-1-1------------------|
G |--2--2-2-|-2-2-2----|-2-2-2-2---|--2-2-2------------------|
D |--2--2-2-|-2-2-2----|-2-2-2-2---|--2-2-2------------------|
A |--0--0-0-|-0-0-0----|-0-0-0-0---|--0-0-0------------------|
E |---------|----------|-----------|-------------------------|


E |--2-2-2-2-|-2-2-2-3---|-3-3-3-3---|--2----------------------|
B |--3-3-3-3-|-3-3-3-2---|-3-3-3-3---|--3----------------------|
G |--2—2-2-2-|-2-2-2-2---|-2-2-2-2---|--2----------------------|
D |--0-0-0-0-|-0-0-0-0---|-0-0-0-0---|--0----------------------|
A |----------|-----------|-----------|-------------------------|
E |----------|-----------|-----------|-------------------------|

E |---------------------------------|
B |---------------------------------|
G |---------------------------------|
D |--5-5--5--5-2--2-2-2-------2-----|
A |--3-3--2--2-0--0-0-0-------2-----|
E |----------------------3b-0-------|

Repeat again from the begining


Second time 

E |-----------------------------|-----------|------------|
B |-----------------------------|-----------|------------|
G |-----------------------------|-----------|------------|
D |--5-5--5--5-2--2-2-2-------2-|-2--2----2-|--2--2------|
A |--3-3--2--2-0--0-0-0-------0—|-3b-0----0-|--3b-0------|
E |----------------------3b-0---|-------3---|--------3---|

E |-----------------------------|-----------|------------|
B |-----------------------------|-----------|------------|
G |-----------------------------|-----------|------------|
D |--5-5--5--5-2--------------2-|-2--2----2-|--2--2------|
A |--3-3--2--2-0—3p2p0--------0—|-3b-0----0-|--3b-0------|
E |----------------------3b-0---|-------3---|--------3---|

E |---------------------------|-----|---|------|
B |---------------------------|-7---|-8-|--7/--|
G |---------------------------|-7---|-7-|--7/--|
D |--5-5--5--5-2--2-2-2-------|-7---|-7-|--7/--|
A |--3-3--2--2-0--0-0-0-------|-5---|-5-|--5/--|
E |----------------------3b-0-|-----|---|------|
                                
Bm (sus)                    E
YOU KNOW THAT PREASSURE FREAKS ME
Bm (sus)                    E
YOU CAN΄T FORGET THIS FEELING
Bm (sus)                    E
WHEN WORLDS I RASED WILL RIP ME?
Bm (sus)                    E
UNTIL THE PRESENT FREES ME


In the part “Walking on the Road...” always play  F#m A E 

Walking                
Solos

E |-----------------------------------------------------------|
B |--17b19-17b19==r17b19—17b19r17p15\14-14-14--14-14-15b17-14-|
G |-----------------------------------------------------------|
D |-----------------------------------------------------------|
A |-----------------------------------------------------------|
E |-----------------------------------------------------------|

E |------------------17b19-17-16-17---16-17--16-17—17p16p14---16---14-16b17/-|
B |------14-15p14----x-------------------------------------17----17----------|
G |--x16----------16-x-------------------------------------------------------|
D |--------------------------------------------------------------------------|
A |--------------------------------------------------------------------------|
E |--------------------------------------------------------------------------|


E |-9--9--/12\9---7h9p7\-5--7--5-5-7/9—5\2-5--—5/7-7-7-7---|
B |--------------------------------------------------------|
G |--------------------------------------------------------|
D |--------------------------------------------------------|
A |--------------------------------------------------------|
E |--------------------------------------------------------|

E |-9--9-9-9-/12\9—7h9p7-5-7--5-7/9-5\2------------------|
B |------------------------------------------------------|
G |------------------------------------------------------|
D |------------------------------------------------------|
A |------------------------------------------------------|
E |------------------------------------------------------|

Solo 2

E |-----------------------------------------------------------------|
B |--17b19-17b19---17---—17b19-17b19---14-14-14--14-14-14--15b17-14-|
G |-----------------------------------------------------------------|
D |-----------------------------------------------------------------|
A |-----------------------------------------------------------------|
E |-----------------------------------------------------------------|


E|---------------------------------------------------------------------------------17b19-17-|
B|-14h15p14---------------------------------------------------------------------------------|
G|----------16-16b18r16p14-16b18r16p14--16b18r16p14---14-16p14--14-16p14----14-14-----------|
D|--------------------------------------------------16--------16---------16-----------------|
A|------------------------------------------------------------------------------------------|
E|------------------------------------------------------------------------------------------|

Solo 3

E |------------------------------------------------------------------|
B |------------------------------------------------------------------|
G |----------------------------------------------9b11--7-6-----------|
D |----------------------------------6-7-9-7-6-7-----------9-7-6-7---|
A |-------4----------4-5-7-5-4-5---7---------------------------------|
E |-2-4-5---5-2---2-5------------------------------------------------|

E |-------------------------------------------------|
B |-------------------------------------------------|
G |-------------------------------------------------|
D |----------------------------------6-7-9-7--------|
A |-------4----------4-5-7-5-4-5---7---------7b9----|
E |-2-4-5---5-2---2-5-------------------------------|


E |-------9-10p9------------14p12----14p12-----------17-16-17-19-17-16-19b21--|
B |----10--------10-9/12h14-------14-------14--17-17--------------------------|
G |-11------------------------------------------------------------------------|
D |---------------------------------------------------------------------------|
A |---------------------------------------------------------------------------|
E |---------------------------------------------------------------------------|

E |-19-17-16-17-19p17p16---------------------------------|
B |------------------------------------------------------|
G |------------------------------------------------------|
D |------------------------------------------------------|
A |------------------------------------------------------|
E |------------------------------------------------------|
 

E |-------9-10p9------------14p12----14p12-----------17-16-17-19-17-16--------|
B |----10--------10---12/14-------14-------14--17-17-------------------17b19--|
G |-11------------------------------------------------------------------------|
D |---------------------------------------------------------------------------|
A |---------------------------------------------------------------------------|
E |---------------------------------------------------------------------------|


E |-19-17-16-17-19p17p16---------------------------------|
B |------------------------------------------------------|
G |------------------------------------------------------|
D |------------------------------------------------------|
A |------------------------------------------------------|
E |------------------------------------------------------|




Tap to rate this tab
 
# A B C D E F G H I J K L M N O P Q R S T U V W X Y Z