Guitaretab - guitar tabs
Song name
# A B C D E F G H I J K L M N O P Q R S T U V W X Y Z

Frank Bell - The Penguin tab

This is a song I found on You Tube, and there's a lot of people looking for this tab.

It's my first tab.

I don't know if this is totaly correct, but it's the way i play it, so, enjoy.

Frank Bell -"The Penguin"
Standard tuning


Intro/Verse
[ Tab from: http://www.guitaretab.com/f/frank-bell/115567.html ]
------5-----5--------7--7-------1-----1----------3--------1----|
------5-----5--------8--8-------1-----1---------3--------1-----|
------6-----6--------7--7-------2-----2--------4--------2------|
------7-----7--------9--9-------3-----3-------5--------3-------|
----------------3s7-----7--------------------------------------|
-0h5-----5------------------0-1---0h1-----0h3------0h1---------|

Chorus

-----5----5----------------|
-----6----6----5---5-------|
-----7----7----6---6-------|
-----7----7----7---7-------| x 3
-0h5----5------7---7-------|
--------------5---5--------|

---3--3-----1----------------|
---3--3-----1----------------|
---4--4-----2--let ring------|
---5--5-----3----------------|
-----------------------------|
-3---3-----1-----------------|

That's it.

I'll be back with the lyrics.
Advertisement will be closed in 10 seconds