Song name
# A B C D E F G H I J K L M N O P Q R S T U V W X Y Z

Frank Black - Abstract Plain tab

            (I want to live on an) Abstract Plain - Frank Black 

Tabbed by:Cowpatable


Tuning: Standard

INTRO

e|-------0-0--------------------------0-0-0-0----------------------------||
B|-------5-4--------------------------5-5-4-4----------------------------||
G|-/6~--------6---4-6~-----888-4--/6~---------6-6-4-6~-----6/8-4-6-------||
D|-----------------------------------------------------------------------||
A|-/4~------------2-4~-----666-2--/4~-------------2-4~-----4/6-2-4-------||
E|---------------------------------------------------------------------0-||
       
                                                             
|C# F# E |x4


E             F#       C#
   I've had it with this town
E          F#        B        E
   I never saw those shifting skies
           F#     C#
   I never saw the ground
A                F#
   Or the sunset rise
A                       E       F#      C#
   I want to live on an abstract plain

E      F#        C#
   I'm building a frame
E            F#      B       E 
   A place to put my ten-yard stare
            F#     C# 
   Thinking of that paint
*A                 F#
   Painted in plein-air
A                       E       F#     C#
   I want to live on an abstract plain

C#m        Am
   I need a new address
C#m           Am
   I want some new terrain
 C#              A
   Is it North or South?
                        E       F#     C#
   I want to live on an abstract plain

BRIDGE

|E F# C#|E F# B E|E F# C#|A F#|A E F# C#| 

 E        F#         C#
   I could sit on the roof
E    F#           B       E 
   On top of that abstract house
          F#      C#
   See my abstract view
*A            F#
   An abstract mouse
A                       E       F#     C#
   I want to live on an abstract plain

C#m         Am
   I need a new address
C#m           Am
   Tell me I'm not insane
C#             A
   Is it up or down?
                        E       F#     C#
   I want to live on an abstract plain

|C# F# E|x4

e|---16--16----16------------|----16-------16----------|
B|----------------19--19--19-|----------------19----16-|
G|-18--18---18---------------|-18-------18-------16----|
D|---------------------------|-------------------------|
A|---------------------------|-------------------------|
E|---------------------------|-------------------------|

e|---16--16----16------------|----16-------------------||
B|----------------19--19--19-|-------16----------------||
G|-18--18---18---------------|-18---------16~----------||
D|---------------------------|-------------------------||
A|---------------------------|-------------------------||
E|---------------------------|-------------------------||

2nd Guitar strums these chords at two points; position marked by this *

e|--0--|--0--|--0--||
B|--0--|--0--|--0--||
G|--6--|--3--|--6--||
D|--7--|--4--|--7--||
A|--7--|--4--|--7--||
E|--5--|--2--|--5--||



| /   slide up
| ~   vibrato
Tap to rate this tab
# A B C D E F G H I J K L M N O P Q R S T U V W X Y Z