Song name
# A B C D E F G H I J K L M N O P Q R S T U V W X Y Z

Frank Black - Radio Lizards tab

hey do you know if pot's got any papers?

C  Am  C  Am  G  F7

------------------------------------------------1------|
---1--------1--------1--------1-----------------1------|
---0--------2--------0--------2--------0--------2------|
---2/3\2----2/3\2----2/3\2----2/3\2----0/3\0----1/3\1--|
---3--------0--------3--------0--------2--------3------|
---------------------------------------3--------1------|

help me out!

C  G  F7  Am  D  Dm  G  F7

-----------1-------2---1-------1---|
---1-------1---1---3---3-------1---|
---0---0---2---2---2---2---0---2---|
---2---0---1---2---0---0---0---1---|
---3---2---3---0-----------2---3---|
-------3---1---------------3---1---|

just keep repeating these two killer progressions for ever.

whenever you feel like ending, end on A minor.
Tap to rate this tab
 
# A B C D E F G H I J K L M N O P Q R S T U V W X Y Z