Song name
# A B C D E F G H I J K L M N O P Q R S T U V W X Y Z

Frank Black - 1862 tab

Help us improve GuitareTab! Take a short survey!
Artist: Frank Black and the Catholics
Song: 1862
Album: Black Letter Days
Tabbed by: spinach_eater (Patrick E.)

In this first part, Frank Black kind of moans to these notes. Feel free to do that if 
want to.


  E E E  H  E E E E E H E E E E E E E E E E E H E E E H     E E E E
|--------------------------------------------------------||----------|
|-------------------------------------------------------o||----------|
|--------------------------------------------------------||----------|
|-------------------------------0-----------------4------||----------|
|-----0--2------0-2-0-------0-2---2-0-------0---2---2---o||-----0----|
|-0-3-------0-3-------3-0-3-----------3-0-3---0-------0--||-0-3---0--|


The rest of the song goes pretty much like this, with minor variations here and there. 
the last two notes of this part, you need to really accent them, play them louder than 
rest. If you listen to the song, you should get the idea.


  E E E E E E E E E
|----------------------||----|
|---------------------o||----|
|----------R-----------||----|
|-2--------E--2--------||----|
|-0-0-2-2--S--0-0-2-2-o||----|
|---3-0-0--T----3-0-0--||----|
Related for 1862 tab