Song name
# A B C D E F G H I J K L M N O P Q R S T U V W X Y Z

Frank Boeijen Groep - Zwart Wit chords

Highlighted       Show chord diagrams
Intro:
  Dm
e|----5---3--------3-5-8-10-|
B|-3----6----3-5-6----------|
G|--------------------------|
D|--------------------------|
A|--------------------------|
E|--------------------------|

Dm | Bb | C | G | 2x

     Dm
hij liep daar
 Bb          C         G
in de stad 's avonds laat
  Dm               Bb
plotseling aan de overkant
 C           G
zag hij ze staan
 Bb               C
iemand riep: "je hoort niet bij ons"
Dm    C    Bb
mes steek pijn
 Dm                     G
denk goed na aan welke kant je staat
 
           Dm
denk niet wit
            G
denk niet zwart
            Bb      F-Em-Dm-C
denk niet zwart wit
           Dm
denk niet wit
            G
denk niet zwart
            Bb
denk niet zwart wit
Dm           C            Bbmaj7
maar in de kleur van je hart
                         C
maar in de kleur van je hart 

Donker was de straat op de weg naar het plein 
Een taxt het is te laat 
het is voorbij 
Wie wil er bloed op de achterbank 
Van de werkelijkheid 
Denk goed na aan welke kant je staat 

Denk niet wit 
denk niet zwart 
Denk niet zwart wit 
Denk niet wit 
denk niet zwart 
Denk niet zwart wit 
Maar in de kleur van je hart 
Maar in de kleur van je hart

Am | G | Bb | C |
Am | G | Dm |

Solo: 
  Dm
e|----5---3--------3-5-8-10-|
B|-3----6----3-5-6----------|
G|--------------------------|
D|--------------------------|
A|--------------------------|
E|--------------------------|

           Dm
denk niet wit
            G
denk niet zwart
            Bb      F-Em-Dm-C
denk niet zwart wit
           Dm
denk niet wit
            G
denk niet zwart
            Bb
denk niet zwart wit
Dm           C            Bbmaj7
maar in de kleur van je hart
                         C
maar in de kleur van je hart 
Bbmaj7
maar in de kleur van je hart
                         C
maar in de kleur van je hart 

Am | G | Bb | C |
Am | G | Dm |

Outro:
  Dm
e|----5---3--------3-5-8-10-|
B|-3----6----3-5-6----------|
G|--------------------------|
D|--------------------------|
A|--------------------------|
E|--------------------------|

Gr. D-san
Tap to rate this tab
 
# A B C D E F G H I J K L M N O P Q R S T U V W X Y Z