Song name
# A B C D E F G H I J K L M N O P Q R S T U V W X Y Z

Frank Iero - Xmas Sux tab

song: xmas sux
artist: frank iero
album: none
tabber: toast

main riff
e|---------------------------|
b|---------------------------|
g|---------------------------|
d|-7--7----------------------|
a|------9-7--7---------------|
e|--------------8--8-10-5--5-|

verse
e|---------------------------------|
b|---------------------------------|
g|---------------------------------|
d|-77777777777777777777777755555555|
a|-77777777777777777777777755555555|
e|-55555555555555555555555533333333|

e|---------------------------------|
b|---------------------------------|
g|--------555555557777777999999999-|
d|77777777555555557777777999999999-|
a|77777777333333335555555577777777-|
e|55555555-------------------------|

chorus
e|--------------------------------|
b|--------------------------------|
g|--------5-(x16)-7-(x16)---------|
d|7-------5-------7-------6-------|
a|7-(x16)-3-------5-------6-(x16)-|
e|5-----------------------4-------|

then you repeat everything and thats p much it.
Tap to rate this tab
# A B C D E F G H I J K L M N O P Q R S T U V W X Y Z