Song name
# A B C D E F G H I J K L M N O P Q R S T U V W X Y Z

Frank Klepacki - Hell March tab

Tabbed by Frank Klepacki


(as written by Frank Klepacki, heard in the game "Command & Conquer: Red Alert")

Courtesy of www.frankklepacki.com



Whole song in triplet feel, low E string is tuned down to D.

Main riff part 1

E-------------------------------------------------------------------------------|
B-------------------------------------------------------------------------------|
G-------------------------------------------------------------------------------|
D-------------------------------------------------------------------------------|
A----0-----0--1--0--0--4--0--0--------------------------------------------------|
D----0-----0--1--0--0--4--0--0--------------------------------------------------|

Beat 1        2        3        4        5        6        7        8



Main riff part 2

E-------------------------------------------------------------------------------|
B-------------------------------------------------------------------------------|
G-------------------------------------------------------------------------------|
D-------------------------------------------------------------------------------|
A----0-----0--1--0--0--4--0--0-----------------------------3--------------------|
D----0-----0--1--0--0--4--0--0--------------------3--4--5-----5--4--3-----------|

Beat 1        2        3        4        5        6        7        8



Muted part

E-------------------------------------------------|
B-------------------------------------------------|
G-------------------------------------------------|
D-------------------------------------------------|
A----0--0--0--0--0--0--0--0--0--0--0--0-----------|
D----0--0--0--0--0--0--0--0--0--0--0--0-----------|

Accent        <                       <

Beat 1        2        3        4



Main Melody (Octaves)

E-------------------------------------------------------------------------------|
B-------------------------------------------------------------------------------|
G-------------7--8--8--8--5--5--5--7--7--7--12-12-12-11-11-11-14-14-14-14-14----|
D-------------------------------------------------------------------------------|
A-------------5--6--6--6--3--3--3--5--5--5--10-10-10-9--9--9--12-12-12-12-12----|
D----0--------------------------------------------------------------------------|

Beat 1        2        3        4        5        6        7        8



Bridge part 1 (chords followed by octaves)

E-------------------------------------------------------------------------------|
B-------------------------------------------------------------------------------|
G----------------------9--9--9--7--7-----------------10-10-10-10-10-------------|
D-------------------------------------------------------------------------------|
A----0--2-----2--------7--7--7--5--5--0--0--3--3-----8--8--8--8--8--------------|
D----0--2-----2-----0-----------------0--0--3--3--0-----------------0-----------|

Beat 1        2        3        4        5        6        7        8



Bridge part 2

E-------------------------------------------------------------------------------|
B-------------------------------------------------------------------------------|
G----------------------9--9--9--7--7--------------------------------------------|
D-------------------------------------------------------------------------------|
A----0--2-----2--------7--7--7--5--5--0--3-----3-----3--3--6-----6-----6--6-----|
D----0--2-----2-----0-----------------0--3-----3-----3--3--6-----6-----6--6-----|

Beat 1        2        3        4        5        6        7        8
Tap to rate this tab
 
# A B C D E F G H I J K L M N O P Q R S T U V W X Y Z