Song name
# A B C D E F G H I J K L M N O P Q R S T U V W X Y Z

Frank Klepacki - Hell March tab

Hey guys.
Here's a tab by me for the Red Alert 3 version of Hell March. (On spotify it's 
name is 'Hell March 1')
I learned to play it from tabs that are here allready, but I noticed that the 
tuning wasn't correct.

So here's the tuning.

d|---
A|---
F|---
C|---
G|---
C|---

Basicly, it's just a D-tune and then two steps lower on all strings.
So, here's the song. (You'll have to figure out the strumming pattern yourself.)

It's not in order, it's just showing where it's played

d|--------------------|
A|--------------------|
F|--------------------|
C|---0--1--3----------|
G|---0--1--3----------|
C|---0--1--3----------|

Here's that little sideriff that pops up every now and then.
(You can replace the G: 5 with a C: 0 if you want to.)

d|--------------------|
A|--------------------|
F|--------------------|
C|--------------------|
G|---------5----------|
C|---3-4-5---5-4-3----|

I dunno what everything's called, but here's the... Uhh, solo, kindof.

d|--------------------------------------------------------------------|
A|--------------------------------------------------------------------|
F|---7/8--8--8/5--5--5/7--7--7/12--12--12/11--11--11/14--14--14-------|
C|--------------------------------------------------------------------|
G|--------------------------------------------------------------------|
C|--------------------------------------------------------------------|

Solo number 2, kindof?
(Without pattern. Don't worry, it's pretty easy to figure out.)

d|---------------------------------------------------------------------|
A|--11p9--12p11--14p12---16p14--17--16--14--16--14--12--14--12--11--11-|
F|---------------------------------------------------------------------|
C|---------------------------------------------------------------------|
G|---------------------------------------------------------------------|
C|---------------------------------------------------------------------|

And that's pretty much it.
If you find any errors, or would like to add something, or correct something, or perhaps 
wanna discuss guitar stuff, you can reach me on marsupilami1995@hotmail.com
Good luck, and have fun guys.
Tap to rate this tab
 
# A B C D E F G H I J K L M N O P Q R S T U V W X Y Z