Song name
# A B C D E F G H I J K L M N O P Q R S T U V W X Y Z

Frank Loesser - Heart And Soul tab

-------------------------------------------------------------------------------
			     HEART AND SOUL - Frank Loesser
-------------------------------------------------------------------------------
Tabbed by: cnglaw
Email: cnglaw13@yahoo.com

Tuning:Standard

This is meant to sound like the piano version, with the intro and rhythym sections 
similar to those you hear in the two-handed piano versions.

INTRO: x1
e|-------0-3-0--------------0----------------------------------------------|
B|--1--1-------1----------1---1------------1-----------0-3-0---------------|
G|------------------2--2--------2--------2---2----0--0-------0-------------|
D|----------------------------------3--3-------3---------------------------|
A|-------------------------------------------------------------------------|
E|-------------------------------------------------------------------------|

RHYTHYM: x2
e|-------3-3--------0-0----------------------------------------------------|
B|---1-1---------------------1-1--------3-3--------------------------------|
G|--------------2-2-----------------0-0------------------------------------|
D|-----------------------3-3-----------------------------------------------|
A|-------------------------------------------------------------------------|
E|-------------------------------------------------------------------------|

MELODY:
e|---------------------0-0-0---0------0-1---3-----5-3-1-0---------------------|
B|-1-1-1---1-0--0-1-3------------3-1-3--------1-----------3-1-0----------0-1--|
G|-------------2-----------------------------------------------2-0---2-0------|
D|-----------------------------------------------------------------3----------|
A|----------------------------------------------------------------------------|
E|----------------------------------------------------------------------------|

Play rhythym section x2 again, then finish with intro piece but add a standard C chord 
down strum to the end

e |--0-------------|
B |--1-------------|
G |--0-------------|
D |--2-------------|
A |--3-------------|
E |--0-------------|


This is my first tab so sorry if it isn't perfect.  Email questions to cnglaw13@yahoo.com
Tap to rate this tab
# A B C D E F G H I J K L M N O P Q R S T U V W X Y Z