Frank Marino - Talkin Bout A Feelin tab

TALKIN BOUT A FEELIN   Key of E  standard tuning

artist: Frank Marino and Mahogany Rush
website: http://www.mahoganyrush.com/
album:  Child Of The Novelty
year:   1974
tab by  burnleaf


figure E (very fast hammer ons)

E -------------------0----------------|
B -------------------0------------8---|
G -----------------------7-9-7-9--7---|
D -------0-2-0-2----------------------|
A ------------------------------------|
E --0--3-----------0------------------|



verse sequence

E ------------------------------------|
B ------4-------4-------4-------------|
G ------3-------3-------3-----5-3-----|
D ------2-------2-------2---------5---|
A --3-3-3---3-3-3---3-3-3---3---------|
E ------------------------------------|


E ------------------------------------------|
B ------4-------4-------4---------4---------|
G ------3-------3-------3-------3---3-5-3---|
D ------2-------2-------2---3-5-----------5-|
A --3-3-3---3-3-3---3-3-3-------------------|
E ------------------------------------------|


E --------------------------6/(8)-------------------|
B ------4-------4-------4-------(8)\6-4-------------|
G ------3-------3-------3---------------5-3---------|
D ------2-------2-------2-------------------5\3-1---|
A --3-3-3---3-3-3---3-3-3---------------------------|
E --------------------------------------------------|



E -------------------------------------------|
B ------4-------4----------------------------|
G ------3-------3---5---6---7---8---9---12---|
D ------2-------2----------------------------|
A --3-3-3---3-3-3---3---4---5---6---7---10---|
E -------------------------------------------|



People always putting me down
They're screaming that I'm walking on sacred ground
Well people got to try and see
That I'm doing what I want now
So let me be me

chorus:

E ----------------------------------------------------------------|
B ----------------------------------------------------------------|
G ------------------------------7-7-----7-----5-5-------5---4-----|
D --5-5-------------7-7-------------------------------------4-----|
A ------------5-------------7---5-5-7/9-------3-3---5/7-----2-----|
E --3-3---5/7-------5-5-7/9---------------------------------------|



Talkin bout a feelin
that is making me feel I'm free


Hey - always making me mad
I don't really think what I'm doing is all that bad
and Hey - I'm just singing out a part of my soul
and I'm going to keep on trying to get to my goal


Well I'm talkin bout this feelin
that I've got to break out of this hole

E ----------------------------------------|
B ----------------------------------------|
G ----------------------------------------|
D ----------------------------------------|
A --5-5---5-5---5-5---5-5---5-5-----------|
E ------7-----7-----7-----7-----7---0-----|


(bass)

E ------------------------------------------|
B ------------------------------------------|
G ------------------------------------------|
D ------------------------------------------|
A 7---5-7---5-7-----5---7---5-7---5-7-----5-|
E --7-----7-------7-------7-----7-------7---|



-- whammy and feedback solo --


at ending over chorus chords:

E --------------------------------------|
B --5-----7------10-------8------7------|
G --7(9)--9(11)--12(14)--10(12)--9(11)--|
D --------------------------------------|
A --------------------------------------|
E --------------------------------------|
Tap to rate this tab
 
# A B C D E F G H I J K L M N O P Q R S T U V W X Y Z