Song name
# A B C D E F G H I J K L M N O P Q R S T U V W X Y Z

Frank Ocean - Done tab

Please correct me if I'm wrong. Especially with the Bridge.
I couldn't hear it too well.

u= strum up
d= strum down
x= chug
/= slide up

Part 1

E|-5--5--x-x-x-x-4--4--x-x-2--x-x-2--2--x-x-2--2--2/5-       \
B|-7--7--x-x-x-x-5--5--x-x-3--x-x-3--3--x-x-3--3--3/7-        \
G|-6--6--x-x-x-x-6--6--x-x-4--x-x-4--4--x-x-4--4--4/6-        |
D|-7--7--x-x-x-x-6--6--x-x-4--x-x-4--4--x-x-4--4--4/7-        |
A|-5--5--x-x-x-x-4--4--x-x-2--x-x-2--2--x-x-2--2--2/5-        | 
E|----------------------------------------------------        |  2x
   d  d  d u d u d  d  d u d  d u d  d  d u d  d  d           |
                                                              |
E|-5--5--x-x-x-x-4--4--x-x-2--x-x-2--x-x-2--x-x-2--2/5-       |
B|-7--7--x-x-x-x-5--5--x-x-3--x-x-3--x-x-3--x-x-3--3/7-       |
G|-6--6--x-x-x-x-6--6--x-x-4--x-x-4--x-x-4--x-x-4--4/6-       |
D|-7--7--x-x-x-x-6--6--x-x-4--x-x-4--x-x-4--x-x-4--4/7-       |
A|-5--5--x-x-x-x-4--4--x-x-2--x-x-2--x-x-2--x-x-2--2/5-       /
E|-----------------------------------------------------      /
   d  d  d u d u d  d  d u d  d u d  d u d  d u d d


Part 2

E|----5--x--5-----4--x--4-----2--x--2-----2--x--2-        \
B|----7--x--7-----5--x--5-----3--x--3-----3--x--3-        |
G|----6--x--6-----6--x--6-----4--x--4-----4--x--4-        |
D|----7--x--7-----6--x--6-----4--x--4-----4--x--4-        |    4x
A|-5-----x-----4-----x-----2-----x-----2-----x----        | 
E|------------------------------------------------        |
   1  &  2  &  3  &  4  &  1  &  2  &  3  &  4  &         /

Part 3                                                          
E|------------    \
B|-2--3--5--6-    |
G|-2--4--6--6-    | Hold each chord for 4 beats
D|-2--4--6--6-    |
A|-0--2--4--4-    |
E|------------    /

Part 1 

Part 2

Part 3

Part 1- 2x

Bridge
Chords:

E|--5--4--2--4-
B|--7--5--3--5-
G|--6--6--4--6-
D|--7--6--4--6-
A|--5--4--2--4-
E|-------------

**Strum Pattern:
 d       u      d      u      d       u        d
STRUM   miss   miss   chug   chug    chug    STRUM
 1                      2                      3        &      4      &


Part 1- 2x
Tap to rate this tab
 
# A B C D E F G H I J K L M N O P Q R S T U V W X Y Z