Song name
# A B C D E F G H I J K L M N O P Q R S T U V W X Y Z

Frank Ocean - Pyramids tab

Frank Ocean
"Pyramids"
Channel Orange
2012

Standart Tuning (e B G D A E)

I heard this song a few times, liked it,
n decided to tab both halfs in chords.
2nd half is my fav part.
Capo on 1st fret for 1st half of Pyramids.
Capo on 3rd fret for 2nd half of Pyramids

1st Half (Capo 1st Fret)

e--0~----0~----2~----2~--|
B--0~----0~----3~----3~--|
G--0~----0~----2~----2~--|
D--2~----2~----0~----0~--|
A--2~----2~----0~----0~--|
E--0~----0~----0~----0~--|

e--0~----0~----0~----0~--|
B--1~----1~----0~----0~--|
G--2~----2~----0~----0~--|
D--2~----2~----2~----2~--|
A--0~----0~----2~----2~--|
E--------------0~----0~--|

Synth Part, in case

e--0-2-3-5-3-2-3-2-2--|
B---------------------|
G---------------------|
D---------------------|
A---------------------|
E---------------------|

e--0-2-3-5-3-2-3-2-2-2--|
B-----------------------|
G-----------------------|
D-----------------------|
A-----------------------|
E-----------------------|

2nd Half (Capo 3rd Fret)

e--1~-1~--1~-1~----0~-0~--0~-0~--|
B--1~-1~--1~-1~----0~-0~--0~-0~--|
G--2~-2~--2~-2~----0~-0~--0~-0~--|
D--3~-3~--3~-3~----2~-2~--2~-2~--|
A--3~-3~--3~-3~----2~-2~--2~-2~--|
E--1~-1~--1~-1~----0~-0~--0~-0~--|

e-----------------------------0~--|
B--3~-3~--3~-3~----3~-3~--3~--0~--|
G--2~-2~--2~-2~----2~-2~--2~--0~--|
D--0~-0~--0~-0~----0~-0~--0~--2~--|
A--0~-0~--0~-0~----0~-0~--0~--2~--|
E--1~-1~--1~-1~----1~-1~--1~--0~--|

Horns

e--0~-0~--0~----0~0~--0~-----|
B------------------------1~--|
G----------------------------|
D----------------------------|
A----------------------------|
E----------------------------|

That's all I got.

Tabbed By X8<-(Triggar8)->8X

Enjoy
Tap to rate this tab
# A B C D E F G H I J K L M N O P Q R S T U V W X Y Z