Song name
# A B C D E F G H I J K L M N O P Q R S T U V W X Y Z

Frank Ocean - White tab

-------------------------------------------------------------------------------
                     White ft. John Mayer - Frank Ocean
-------------------------------------------------------------------------------
Tabbed by: David K.
E-mail: this charming man 13 @ gmail (dot) com

Tuning: Standard though you may have to fiddle with it, it's not exact

It's all about the timing on this one, so listen closely

e|---------------------------------------------------------------------------|
B|---------------------------------------------------------------------------|
G|------------------------------------------------/5----3p1------------8\5---|
D|--6/8-6p4----4-6-6/8-6/8-6/8-6/8-6/8------6h7h8------------3---6--8--------|
A|-----------6---------------------------------------------------------------|
E|---------------------------------------------------------------------------|


e|--11-11--8-8------------------------------------------86868---11-8---------|
B|--------------9-9-------------------------------------------6--------------|
G|------------------8-8--------------------1h3-1~----------------------------|
D|----------------------10-10-6-6-3-3-1-3-----3------------------------------|
A|---------------------------------------------------------------------------|
E|---------------------------------------------------------------------------|


e|---11-11-9-9-8-8-6-6-4-4---------------------------------------------------|
B|----------------------------7-7-4/6------9h11-9p7---7-9-9/11-9/11----------|
G|--------------------------------------------------8------------------------|
D|---------------------------------------------------------------------------|
A|---------------------------------------------------------------------------|
E|---------------------------------------------------------------------------|

e|---------------------------------------------------------------------------|
B|--9/11-9/11-9/11------13p11h13-13p11---------------------------------------|
G|---------------------------------------------------------------------------|
D|------------------------------------------15-13h15-------------------------|
A|-----------------------------------------------------15p13h15--------------|
E|---------------------------------------------------------------------------|

e|--11-11---------------------12h13----------------------11------------------|
B|-x------13-13-13-13-------x-------11-13-13-13~--------x---11-13-13-13------|
G|x-----------------------x---------------------------x----------------------|
D|----------------------x----------------------------------------------------|
A|---------------------------------------------------------------------------|
E|---------------------------------------------------------------------------|
     (rake the notes downwards)
e|-----------11--------------------------------------------------------------|
B|-------11----13~-----------------------------------------------------------|
G|---13----------------------------------------------------------------------|
D|---------------------------------------------------------------------------|
A|---------------------------------------------------------------------------|
E|---------------------------------------------------------------------------|

************************************

| /   slide up
| \   slide down
| h   hammer-on
| p   pull-off
| ~   vibrato
| +   harmonic
| x   Mute note
| b   Bend
| pb  Pre-bend
| br  Bend release
| pbr Pre-bend release
| brb Bend release bend

************************************
Tap to rate this tab
# A B C D E F G H I J K L M N O P Q R S T U V W X Y Z