Song name
# A B C D E F G H I J K L M N O P Q R S T U V W X Y Z

Frank Ocean - Songs For Women tab

-------------------------------------------------------------------------------
SONGS FOR WOMEN - Frank Ocean
-------------------------------------------------------------------------------
Tabbed by: Spencer Riner
E-mail: spencerriner@gmail.com

Tuning: Standard

When I play these chords I really only play the four highest strings, like a 
drop 2 voicing. The root note on the A string is just so you can hear the 
tonality of the chord, and see how it's barred. 

     D#M7  dm7                 FM7     Em7

e|---6---6-5----5h8p5----------8----8--7----7h10p7---------------------------|
B|---8---8-6-----------6p8p6---10---10-8------------8h10p8-------------------|
G|---7---7-5-------------------9----9--7-------------------------------------|
D|---8---8-7-------------------10---10-9-------------------------------------|
A|---6---6-5-------------------8----8--7-------------------------------------|
E|---------------------------------------------------------------------------|

D#M7                     
If I was singin songs just to sing the songs

dm7
If I was singin cause thats what the -----es wanted

FM7
I couldn't play guitar like Van Halen

Em7
Had no secret chords like St. David


And it pretty much carries on that way the whole time. The rhythm is hard to 
nail at first, it helps to play along with the recording. Here is the 
bassline/intro riff if you want that too.


e|---------------------------------------------------------------------------|
B|---------------------------------------------------------------------------|
G|---------------------------------------------------------------------------|
D|---------------------------------------------------------------------------|
A|--6-6-6-6----------6-6-5----8-8-8-8---------8-10-7-------------------------|
E|---------------6-6----------------------8-8--------------------------------|

************************************

| /   slide up
| \   slide down
| h   hammer-on
| p   pull-off
| ~   vibrato
| +   harmonic
| x   Mute note
| b   Bend
| pb  Pre-bend
| br  Bend release
| pbr Pre-bend release
| brb Bend release bend

************************************
Tap to rate this tab
# A B C D E F G H I J K L M N O P Q R S T U V W X Y Z