Song name
# A B C D E F G H I J K L M N O P Q R S T U V W X Y Z

Frank Sinatra - All Of Me tab

-------------------------------------------------------------------------------
			    All of Me
-------------------------------------------------------------------------------
Tabbed by: Ardie12	
Email: Ardie12@hotmail.com

Tuning: standard
Jazz 
Moderately 

e|--------------------------------------------------------------------|
B|--------------------------------------------------------------------|
G|--5--------5-7-5--4------------------------------------------4-7-5--|
D|----5---------------6----7-5------------8-7-5--------------6--------|
A|--------7-------------7-------7--7-6-7--------8--7--6-5--7----------|
E|--------------------------------------------------------------------|

e|--------------------|
B|--------------------|
G|--4--------7-4---4--|
D|----8-7--7-----7----|
A|--------------------|
E|--------------------|

e|--------------------------------------------------------------------|
B|--------------------------------------------------------------------|
G|--5--------5-7-5--4------------------------------7--5-4---7-5-4-----|
D|----5---------------6----7-5------------8-7-5-----------------------|
A|--------7-------------7-------7--7-6-7--------8---------------------|
E|--------------------------------------------------------------------|

e|--------------------------------------------------------------------|
B|---------------------5-5--------------------------------------------|
G|-------4-----5----5------5------------------------------------------|
D|-----5-----7---8----------------------------------------------------|
A|--7-----------------------------------------------------------------|
E|--------------------------------------------------------------------|
Tap to rate this tab
 
# A B C D E F G H I J K L M N O P Q R S T U V W X Y Z