Song name
# A B C D E F G H I J K L M N O P Q R S T U V W X Y Z

Frank Sinatra - Fly Me To The Moon tab

-------------------------------------------------------------------------------
			  Frank Sinatra - Fly me to the moon
-------------------------------------------------------------------------------
Tabbed by: andyt
Email: andrew(at)norvil(dot)net

Tuning: Standard

Note. The only thing played in the recording is the chords, which I will show at the
top, however to add a little spice, I'm making a new version to let you make it a 
little bit harder, and play (most of) the singing part. Also, I'm only tabbing the
first verse and a bit extra for fun. Have a nice time learning it. :)

I tabbed this because there are zero completely correct tabs on the site. Hope you 
realise that this is not just another copy of a bad tab, this one is correct :)


    Am7               Dm7               G7                Cmaj7
e|--8----7----5-------------------5h7---7----7h5-----------------------------|
B|--5--------------8--6------6h8--------6---------8--8h6---5-----------------|
G|--5-----------------5-----------------7------------------4-----------------|
D|--5-----------------7-----------------5------------------5-----------------|
A|--7-----------------5------------------------------------3-----------------|
E|--5------------------------------------------------------------------------|
    Fly me    to  the moon     Let  me  play amongst   the stars


    Fmaj7            Bm7b5              E7#9              Am7
e|---------------------------------------------------------------------------|
B|--10-----8-------------------6--8-----8---5--------------------------------|
G|--9--------10--9----7---9-------------7--------7----5---5------------------|
D|--10----------------7-----------------6-----------------5------------------|
A|--8-----------------8-----------------7-----------------7------------------|
E|--------------------7-----------------0-----------------5------------------|
    Let    me    what spring   like         Jupiter   and mars 
             see          is      on


    A7                G7                Cmaj7             F7  
e|---------------------------------------------------------------------------|
B|--6-----------------------------------5------------------------------------|
G|--5-----------------4-----------------4-----------------2------------------|
D|--7-----------------3-----------------5-----------------1------------------|
A|--5-----------------5-----------------3-----------------3------------------|
E|--------------------3-----------------------------------1------------------|
    In other words             hold my hand


    Bm7b5             E7                A7                Am7 
e|---------------------------------------------------------------------------|
B|--3-----------------------------------2-----------------1------------------|
G|--2-----------------1-----------------0-----------------0------------------|
D|--3-----------------0-----------------2-----------------2------------------|
A|--2-----------------2-----------------0-----------------0------------------|
E|--------------------0------------------------------------------------------|
    In other words               baby kiss me  




The way I like to play the chords in the second part of the verse "In other words..."


    A7                G7                Cmaj7             F7  
e|---------------------------------------------------------------------------|
B|--------6-----------------------------------5------------------------------|
G|------------5-------------4--------------------4--------------2------------|
D|-----7-------7----------------3----------5------5----------------1---------|
A|--5--------------------5-------5------3--------------------3------3--------|
E|--------------------3-----------------------------------1------------------|
    

    Bm7b5             E7                A7                Am7 
e|---------------------------------------------------------------------------|
B|--------3------------------------------------2-----------1----1--1---------|
G|-----------2--------------1---------------------0--------0----0--0---------|
D|-----3------3----------------0------------2------2-------2----2--2---------|
A|--2--------------------2------2--------0-----------------0-----------------|
E|--------------------0------------------------------------------------------|

and to be perfectly honest, it sounds pretty good to play the whole song with that pattern ^^^

Please rate. 5 stars would be preferable :)
Tap to rate this tab
 
# A B C D E F G H I J K L M N O P Q R S T U V W X Y Z