Song name
# A B C D E F G H I J K L M N O P Q R S T U V W X Y Z

Frank Sinatra - Young At Heart chords

Highlighted       Show chord diagrams
---------------------------------------------------------------------------
		Young at Heart - Frank Sinatra
---------------------------------------------------------------------------
Tabbed by: maguri
Tuning: Standard

Frank Sinatra
Young at Heart (1953)
(Johnny Richards/Carolyn Leigh)

My reading of this song. 
If you want to have a rough idea of what this tab
sounds like, check it out here: 
http://profile.ultimate-guitar.com/maguri/music/all/play1052366

---------------------------------------------------------------------------
CHORDS

          e-B-G-D-A-E
G         3-0-0-0-x-3
G6        0-0-0-0-x-3
Gmaj7     2-0-0-0-x-3
Gmaj7*    x-3-4-4-x-3
G*        x-3-0-0-x-3
D*        5-3-2-0-x-x
Dsus4     3-3-2-0-x-x
D         2-3-2-0-x-x
D7sus2    0-1-2-0-x-x
D7/b9     x-4-5-0-x-x
Bm7-5     x-3-2-3-2-x
E7        0-0-1-0-2-0
A7/9      x-3-4-2-0-x
A         x-2-2-2-0-x
D7        2-1-2-0-x-x
Ddim      1-0-1-0-x-x
D7/A      2-1-2-0-0-x
G/D       3-0-0-0-x-x
B7/D#     2-0-2-1-x-x
Em        0-0-0-2-x-x
Am        x-1-2-2-0-x
A/C#      x-2-2-2-0-x

---------------------------------------------------------------------------

LINK 1
 G6  Am7 G6/B Bbdim
e|----------------|
B|0---1---3---2---|
G|--0-------0-----|
D|----------------|
A|----0---2---1---|
E|3---------------|

LINK 2
  G  Am7  G/B Bbdim Am7  D7(no 3rd) G 
e|----------------|----------------|----------------|
B|0---1---3---2---|1-------1-----0-|----------------|
G|--0-------0-----|0-------2-----0-|----------------|
D|----------------|2-------0-------|----------------|
A|----0---2---1---|0---------------|----------------|
E|3---------------|----------------|3---------------|


---------------------------------------------------------------------------
Capo 1st fret

INTRO
| G Gmaj7 | G6 Gmaj7*

      G              Gmaj7       G6        Gmaj7*
Fairy tales can come true it can happen to you
          Am7
If you're young at heart
          D*            Dsus4       D        D7sus2
For it's hard you will find to be narrow of mind
D7/b9       G*       G6       Gmaj7  G6  G*
  If you're young at heart
        Bm7-5    E7            Bm7-5           E7
You can go  to extremes with impossible schemes
A7/9            A            A7/9             A  
Laugh when your dreams fall apart at the seams
    D7       Ddim    D7     Ddim      D7      D7/A
And life gets more exciting with each passing day
     G6     Am7    G6/B    Bbdim [= LINK 1]
And love is either in your heart ...
Am7         D7
  Or on its way



          G              Gmaj7       G6          Gmaj7*
Don't you know that it's worth ev'ry treasure on earth
      Am7
To be young at heart
       D*          Dsus4         D         D7sus2
For as rich as you are it's much better by far
D7/b9   G*       G6       Gmaj7  G6  G*
  To be young at heart
       Bm7-5         E7        Bm7-5           E7
And if you should survive to a hundred and five
         A7/9         A           A7/9   F
Laugh at all you'll derive out of being alive
    G/D         B7/D# Em   Am            A/C# D7
And here is the best part: you'll have a head start
G      Am7  G/B      Bbdim Am7   D7(no 3rd) G [= LINK 2]
If you are among the very  young at         heart


INSTRUMENTAL
| G Gmaj7 | G6 Gmaj7* | Am7 | % |
| D* Dsus4 | D D7sus2 | G* G6 | Gmaj7  G6 G* |


       Bm7-5         E7        Bm7-5           E7
And if you should survive to a hundred and five
         A7/9         A           A7/9   F
Laugh at all you'll derive out of being alive
    G/D         B7/D# Em   Am            A/C# D7
And here is the best part: you'll have a head start
G      Am7  G/B      Bbdim Am7   D7sus4     G   Gmaj7   G6  Gmaj7*
If you are among the very  young at         heart
                           [ritardando]

Tap to rate this tab
# A B C D E F G H I J K L M N O P Q R S T U V W X Y Z