Song name
# A B C D E F G H I J K L M N O P Q R S T U V W X Y Z

Frank Turner - To Take You Home tab

-------------------------------------------------------------------------------
			  To Take You Home - Frank Turner


-------------------------------------------------------------------------------
Tabbed by: horrorstorey
Email: coffinjib@hotmail.co.uk


Tuning: Standard.

Chords:
 
E:           022100
B:           x24442
Bsomething:  x24452
C#m:         x46654
A:           x02210
Fm:          244222
G#m:         455444
D:           x57755
Eb:          x68886



Main Melody!

e|--------------------------------------|-------------------------------------|
B|------0---0---0---0---0----0---0---0--|-----0---0---0---0---0---0---0---0---|
G|--2s4---4---4---2---1-----------------|-2s4---4---4---6---7---6---4---2-----|
D|-------------------------4---2---2----|-------------------------------------|
A|--------------------------------------|-------------------------------------|
E|--------------------------------------|-------------------------------------|

e|--------------------------------------|-------------------------------------|
B|------0---0---0---0---0----0---0---0--|---0---0---------0-----0----0----0---|
G|--2s4---4---4---2---1-----------------|-------------------------------------|
D|-------------------------4---2---2----|-0---0---0--2--4----2----------2-----|
A|--------------------------------------|--------------------------2----------|
E|--------------------------------------|-------------------------------------|

Chords:

   E                                      E
e|--------------------------------------|-------------------------------------|
B|------0---0---0---0---0----0---0---0--|-----0---0---0---0---0---0---0---0---|
G|--2s4---4---4---2---1-----------------|-2s4---4---4---6---7---6---4---2-----|
D|-------------------------4---2---2----|-------------------------------------|
A|--------------------------------------|-------------------------------------|
E|--------------------------------------|-------------------------------------|

   E                                     B               Bsomething.               
e|--------------------------------------|-------------------------------------|
B|------0---0---0---0---0----0---0---0--|---0---0---------0-----0----0----0---|
G|--2s4---4---4---2---1-----------------|-------------------------------------|
D|-------------------------4---2---2----|-0---0---0--2--4----2----------2-----|
A|--------------------------------------|--------------------------2----------|
E|--------------------------------------|-------------------------------------|

Fill: 

A B E


Chorus:

   C#m                        A                     E
But honey I was lonely on the road, I was all on my own

   C#m                  A                     E
Hanging outside at the back of a death metal show

   C#m                             A
I saw you standing there with your hair down low

  E                      B
A kink in your step that made me want to know

C#m          A              E
If you would like to take me home 

B                                          A                                
Who'd of thought that a French kiss from a Parisian girl could capture an 
         E
English boy 




Verse 2:

Same as Main Melody + Fill.



Bridge:

A
Cos she was a quiet one

She was a shy one
                              E
She was the prettier at the show

A
She crept up so slowly

She crept up behind me
                                        E
But still she pretended that she didn't know

A 
But all that she thinks of me, and she kissed me
                        
                        Fm  
And she's yet to let me go 

G#m         A
though I'm far away

D
Across of sea 

Fm                  G#m          
I'm singing for the hope that she would 

A             Eb
Ever remember me 


Last Chorus:

(Outro)

C#m                                A                        E
So honey when you're lonely on the road, you're all on your own

C#m                     A                   E
Hanging outside at the back of the country show

C#m                    A
Picture me there with hat down low

E                      B
A smile upon my face to let you know

C#m          A                E
That I would like to take you home

C#m          A                E            B
That I would like to take you home, to the hills that I know

C#m     A                E            B        C#m      
I would like to take you home, to the places I go
 
        A                E
I would like to take you home

B                                             A       
And that's the way that a French kiss from an English boy can capture a 

         E
Parisian girl 

e|--------------------------------------|-------------------------------------|
B|------0---0---0---0---0----0---0---0--|---0---0---------0-----0----0----0---|
G|--2s4---4---4---2---1-----------------|-------------------------------------|
D|-------------------------4---2---2----|-0---0---0--2--4----2----------2-----|
A|--------------------------------------|--------------------------2----------|
E|--------------------------------------|-------------------------------------|

The end =]

Tap to rate this tab
# A B C D E F G H I J K L M N O P Q R S T U V W X Y Z