Song name
# A B C D E F G H I J K L M N O P Q R S T U V W X Y Z

Frank Turner - Dancing Queen chords

Highlighted       Show chord diagrams
Artist: Frank Turner
Song: Dancing Queen [ABBA]

Any problems/queries, email me: diarmuidhenry@live.co.uk

I was searching for this for a while; then from listening and watching
videos,think I've got it. The strumming pattern's fairly straight
forward once you listen to it, so I'll just put the chords & intro.

A*:  -0-7-7-6-0-0-|
B*:  -0-9-9-8-0-0-|
B7:  -x-2-4-2-4-2-|
C#m: -x-4-6-6-5-4-|
F#:  -2-4-4-5-2-2-|
Ab:  -4-6-6-5-4-4-|


** [B -> C#m]
e----------------------4----------|
B----------------------5----------|
G----------------------6----------|
D----------------------6----------|      x2
A--------2/4----4------4----------|
E---------------------------------|


INTRO:

Listen to the song for appropriate rhythms etc. 
               E*            E/D#*           A*
e--------------0--------------0--------------0--------------|
B--------------0--------------0--------------0--------------|
G--------------9--------------8--------------6--------------|
D--------------9--------------9--------------7--------------|
A--------------7--------------7--------------7--------------|
E--------------0--------------0--------------0--------------|

               E*     E*+     E*    E/D#*    A*
e--------------0-------0------0------0-------0--------------|
B--------------0-------9------0------0-------0--------------|
G--------------9-------9------9------8-------6--------------|
D--------------9-------9------9------9-------5--------------|
A--------------7-------7------7------7-------5--------------|
E--------------0-------0------0------0-------0--------------|


(part of) CHORUS:

B7             Ab
You can dance, you can jive, you're
C#m                     F#
having the time of your life
A*              B*                            E
See that girl, watch that scene, diggin' the Dancing Queen



VERSE

E                                   A*
Friday night and the lights are low
E                               C#m
Looking out for the place to go
B
Where they play the right music, getting in the swing
                 **
You come in to look for a king
E                       A*
Anybody could be that guy
E                               C#m
Night is young and the music's high
B
With a bit of rock music, everything is fine
               **
You're in the mood for a dance
              A*                  B*
And when you get the chance...


CHORUS
             E             A*                       E        A*
You are the Dancing Queen, young and sweet, only seventeen
E              A*                     E                   A*
Dancing Queen, feel the beat from the tambourine, oh yeah
B7             Ab
You can dance, you can jive, you're
C#m                     F#
having the time of your life
A*             B*               E
See that girl, watch that scene, diggin' the Dancing Queen


VERSE (same chords as above)

You're a teaser, you turn 'em on
Leave them burning and then you're gone
Looking out for another, anyone will do
You're in the mood for a dance
And when you get the chance...


CHORUS (same as above)

You are the Dancing Queen, young and sweet, only seventeen
Dancing Queen, feel the beat from the tambourine, oh yeah
You can dance, you can jive, yo-ooooooooooou're
[just strum chords once, play slower]
having the time of your life
Yeah see that girl, watch that scene, diggin' the dancing queen.

[End on E]
Tap to rate this tab
 
# A B C D E F G H I J K L M N O P Q R S T U V W X Y Z