Song name
# A B C D E F G H I J K L M N O P Q R S T U V W X Y Z

Frank Turner - Longing For The Day chords

Highlighted       Show chord diagrams
Longing For The Day by Frank Turner

I've just added to mattberesford27's tab with the chords for the bridge of the 
song. He gets the credit for this, I've just filled in the gaps. I think it's right. Let me know. 


VERSE:

   *Eb   Dbm   Abm   F#m    A     E    F#m    B7
E|-----|--4--|--4--|--2--|--0--|--0--|--2--|--2--|
B|--7--|--5--|--4--|--2--|--0--|--0--|--2--|--4--|
G|--6--|--6--|--4--|--2--|--2--|--1--|--2--|--2--|
D|--7--|--6--|--6--|--4--|--2--|--2--|--4--|--4--|
A|--6--|--4--|--6--|--4--|--0--|--2--|--4--|--2--|
E|-----|-----|--4--|--2--|-----|--0--|--2--|-----|

PRE CHORUS:

    A   [ch]Ab/A[/ch]   F#m   Dbm    A     E     B7
E|--0--|--0--|--2--|--4--|--0--|--0--|--2--|
B|--0--|--0--|--2--|--5--|--0--|--0--|--4--|
G|--2--|-----|--2--|--6--|--2--|--1--|--2--|
D|--2--|--6--|--4--|--6--|--2--|--2--|--4--|
A|--0--|--7--|--4--|--4--|--0--|--2--|--2--|
E|-----|--4--|--2--|-----|-----|--0--|-----|

CHORUS:

    E     A    F#m    B7    E     A    F#m    A     B7
E|--0--|--0--|--2--|--2--|--0--|--0--|--2--|--0--|--2--|
B|--0--|--0--|--2--|--4--|--0--|--0--|--2--|--0--|--4--|
G|--1--|--2--|--2--|--2--|--1--|--2--|--2--|--2--|--2--|
D|--2--|--2--|--4--|--4--|--2--|--2--|--4--|--2--|--4--|
A|--2--|--0--|--4--|--2--|--2--|--0--|--4--|--0--|--2--|
E|--0--|-----|--2--|-----|--0--|-----|--2--|-----|-----|

Bridge (I will lift you up...) 

    E     B7
E|--0--|--2--|
B|--0--|--4--|
G|--1--|--2--|        X4
D|--2--|--4--|
A|--2--|--2--|
E|--0--|-----|


    E    G#m   C#m    A     E    F#m    A     B7   
E|--0--|--4--|--4--|--0--|--0--|--2--|--0--|--2--|
B|--0--|--4--|--5--|--0--|--0--|--2--|--0--|--4--|
G|--1--|--4--|--6--|--2--|--1--|--2--|--2--|--2--|     X4
D|--2--|--6--|--6--|--2--|--2--|--4--|--2--|--4--|
A|--2--|--6--|--4--|--0--|--2--|--4--|--0--|--2--|
E|--0--|--4--|-----|-----|--0--|--2--|-----|-----|


PRE CHORUS:

    A   [ch]Ab/A[/ch]   F#m   Dbm    A     E     B7
E|--0--|--0--|--2--|--4--|--0--|--0--|--2--|
B|--0--|--0--|--2--|--5--|--0--|--0--|--4--|
G|--2--|-----|--2--|--6--|--2--|--1--|--2--|
D|--2--|--6--|--4--|--6--|--2--|--2--|--4--|
A|--0--|--7--|--4--|--4--|--0--|--2--|--2--|
E|-----|--4--|--2--|-----|-----|--0--|-----|

CHORUS:

    E     A    F#m    B7    E     A    F#m    A     B7    A
E|--0--|--0--|--2--|--2--|--0--|--0--|--2--|--0--|--2--|--0--|
B|--0--|--0--|--2--|--4--|--0--|--0--|--2--|--0--|--4--|--0--|
G|--1--|--2--|--2--|--2--|--1--|--2--|--2--|--2--|--2--|--2--|
D|--2--|--2--|--4--|--4--|--2--|--2--|--4--|--2--|--4--|--2--|
A|--2--|--0--|--4--|--2--|--2--|--0--|--4--|--0--|--2--|--0--|
E|--0--|-----|--2--|-----|--0--|-----|--2--|-----|-----|-----|
Tap to rate this tab
# A B C D E F G H I J K L M N O P Q R S T U V W X Y Z