Song name
# A B C D E F G H I J K L M N O P Q R S T U V W X Y Z

Frank Turner - Wessex Boy tab

Hey People, I spent ages trying to find a good tab for this song to no good 
end (no offence to the other tabbers) so I spent a lil while finding a video 
of it and trying to work it out like that, this isn't the album version, its 
how Frank plays it alone (got it from this video https://www.youtube.com
/watch?v=dtCoaEDSwek). It workd with the album as well, I think it sounds 
alright, but I'll let you decide. :)


Into:

                                x2
            |-------------------^---------------|
e|-x-x-x-x--|2--2-2-2-2----0-0-2-2-2-2-2-0---0--|
B|-x-x-x-x--|3--3-3-0-3----3-3-3-3-3-3-0-3---3--|
G|-x-x-x-x--|2--2-2-2-2----0-0-2-2-2-2-2-0---0--|
D|-x-x-x-x--|0--0-0-0-0----4-2-0-0-0-0-0-2---2--|
A|-x-x-x-x--|0--0-0-0-0----0-0-0-0-0-0-0-0---2--|
E|-x-x-x-x--|0--0-0-0-0----3-3-0-0-0-0-0-3---0--|


Verse:

      Let me tell you all...
                                                     x2|
                                |--------------------^-----------------|
e|-2----------------------------|-2--0h2-2-----------------------------|
B|-3----------------3-----------|-3--3-----3---------------3-----------|
G|-2---------------------0------|-2--2-------2-------------------0-----|
D|-0------------------0----0----|-0--0-----------------------0-----0---|
A|-0-----2-0----0h2-----2----2--|-0--0----------2-0----0h2-----2-----2-|
E|-0---------3------------------|-0--0--------------3------------------|


|
|-2--0h2-2-------------------------------|
|-3--3-----3--------------3--------------|
|-2--2-------2---------------------------|
|-0--0----------------------0------------|
|-0--0----------2-0---0h2-----2-0h2p0----|
|-0--0--------------3-----------------3--|



Chorus:

          Something about coming...

                     x2
 |-------------------^----------------------|
e|-0--0-0-0-0--0--0-0-0-0--3--3--3-3-3-3--3-|
B|-3--3-3-3-3--3--3-3-3-3--3--3--3-3-3-3--3-|
G|-2--2-2-2-2--2--2-2-2-2--0--0--0-0-0-0--0-|
D|-2--2-2-2-2--0--0-0-0-0--0--0--0-0-0-0--0-|
A|-0--0-0-0-0--2--2-2-2-2--2--2--2-2-2-2--2-|
E|-------------------------3--3--3-3-3-3--3-|


    [Intro]
    [Verse]
    [Chorus + last chord (G) for an extra bar]



Bridge Part I:

      Someday I will hear....

                        x3
 |----------------------^------------------------|
e|-2---2--2-2--3---3--3-3--0---0--0-0--3--3--3--3|--0-----3--3-3-3--3-3-|
B|-3---3--3-3--3---3--3-3--3---3--3-3--2--2--2--2|--3-----3--3-3-3--3-3-|
G|-4---4--4-4--0---0--0-0--2---2--2-2--3--3--3--3|--2-----0--0-0-0--0-0-|
D|-4---4--4-4--0---0--0-0--2---2--2-2--0--0--0--0|--2-----0--0-0-0--0-0-|
A|-2---2--2-2--2---2--2-2--0---0--0-0------------|--0-----2--2-2-2--2-2-|
E|-2---2--2-2--3---3--3-3------------------------|--------3--3-3-3--3-3-|




Bridge part II into Intro:

                 x2
 |---------------^--------------------|
e|-11-7-5-5-7-------------------------|
B|------------7-5-3---3-0-----0-------|
G|------------------------2-2---------|
D|------------------------------4-2-0-|
A|------------------------------------|
E|------------------------------------|


[chorus x2]
[Intro]

Outro: 

       x7
 |-----^----|
e|----------|--2-|
B|-----3-0--|--3-|
G|-2-2-----2|--2-|
D|-0-0------|--0-|
A|----------|----|
E|----------|----|

Thanks :)

h=hammer-on
p=pull-off
Tap to rate this tab
# A B C D E F G H I J K L M N O P Q R S T U V W X Y Z