Song name
# A B C D E F G H I J K L M N O P Q R S T U V W X Y Z

Frank Turner - Four Simple Words tab

E|-------------------------------------------------------------------------------------------|
B|--5------------------------------------------------------------------5h6p5-----------5-----|
G|-----7--5--4--4h5p4--------------------------------------------5--7---------7--5--7--------|
D|---------------------7--5-----------------------5--7--------7------------------------------|
A|---------------------------7--5--3p0--2p0--3p0--------7--5---------------------------------|
E|-------------------------------------------------------------------------------------------|



E|--------------8--8--8--8--7--7--7--7--8--8--8--8--7--7--7--7--5h7p5-------|
B|--6--8--8--8--------------------------------------------------------------|
G|---------------------------------------------------------------------7b9--|
D|--------------------------------------------------------------------------|
A|--------------------------------------------------------------------------|
E|--------------------------------------------------------------------------|
Tap to rate this tab
# A B C D E F G H I J K L M N O P Q R S T U V W X Y Z