Song name
# A B C D E F G H I J K L M N O P Q R S T U V W X Y Z

Frank Turner - Worse Things Happen At Sea tab

-------------------------------------------------------------------------------
                Worse things happen at sea - Frank Turner
-------------------------------------------------------------------------------
Tabbed by: DevilMayCare
Email: contents_may_vary@hotmail.com

Tuning: Standard (EADGBe)

Introduction and Verse 1

e|-------------------------------------------------------|
B|------3-------------2--------------3-------3----3------|
G|----2---2--2p0h2------2--2p0h2-------2---0-----0-------|  x6
D|--0--------0-----0-------0------0------3---------------|
A|---------------------------------------------5---------|
E|-------------------------------------------------------|

Chorus

e|-----1--------1------1----------|-----1--------1-------0--------|
B|-------3--------3------3---3--3-|------3--------3------2--2-----|
G|---2----2---2----2-2----2--2--2-|-------3--------3-----0----0---| x2  
D|-0--------0-------0--------0----|----0-------0------2---------2-|
A|------------------------------3-|-------------------0---------0-|
E|--------------------------------|--3-------3--------------------|

Bbsus2 x2


Verse 2

e|-------------------------------------------------------|
B|------3-------------2--------------3-------3----3------|
G|----2---2--2p0h2------2--2p0h2-------2---0-----0-------|  x7
D|--0--------0-----0-------0------0------3---------------|
A|---------------------------------------------5---------|
E|-------------------------------------------------------|


Chorus

e|-----1--------1------1----------|-----1--------1-------0--------|
B|-------3--------3------3---3--3-|------3--------3------2--2-----|
G|---2----2---2----2-2----2--2--2-|-------3--------3-----0----0---| x2  
D|-0--------0-------0--------0----|----0-------0------2---------2-|
A|------------------------------3-|-------------------0---------0-|
E|--------------------------------|--3-------3--------------------|

Bbsus2 x2

Verse 3

e|-------------------------------------------------------|
B|------3-------------2--------------3-------3----3------|
G|----2---2--2p0h2------2--2p0h2-------2---0-----0-------|  x7
D|--0--------0-----0-------0------0------3---------------|
A|---------------------------------------------5---------|
E|-------------------------------------------------------|


Chorus

e|-----1--------1------1----------|-----1--------1-------0--------|
B|-------3--------3------3---3--3-|------3--------3------2--2-----|
G|---2----2---2----2-2----2--2--2-|-------3--------3-----0----0---| x2  
D|-0--------0-------0--------0----|----0-------0------2---------2-|
A|------------------------------3-|-------------------0---------0-|
E|--------------------------------|--3-------3--------------------|

Bbsus2 x2

Strummed Verse ("Well honestly, your honesty, it has emerged unscathed...")

|D|D|F6|A7| x4

Chorus

e|-----1--------1------1----------|-----1--------1-------0--------|
B|-------3--------3------3---3--3-|------3--------3------2--2-----|
G|---2----2---2----2-2----2--2--2-|-------3--------3-----0----0---| x2  
D|-0--------0-------0--------0----|----0-------0------2---------2-|
A|------------------------------3-|-------------------0---------0-|
E|--------------------------------|--3-------3--------------------|

Bbsus2 | C A7|


| /  slide up
| \  slide down
| h  hammer-on
| p  pull-off
| ~  vibrato
| +  harmonic
| x  Mute note
===============================================================================
Tap to rate this tab
 
# A B C D E F G H I J K L M N O P Q R S T U V W X Y Z