Song name
# A B C D E F G H I J K L M N O P Q R S T U V W X Y Z

Frank Zappa - Eat That Question tab

Help us improve GuitareTab! Take a short survey!
Tabbed by: Free to Guitar
Email: alamarianusp at yahoo.com
For my first tab, I picked a great fusion number by FZ. I hope someone better
than I can figure out the solo.
()=optional note.
h=hammer-on.
p=pull-off.
/=slide down.
\=slide up.

Keyboard intro. 0:00-0:44
Guitar riff. 0:44
e|---------------------------------------------------------------------------|
B|---------------------------------------------------------------------------|
G|---------------------------------------------------------------------------|
D|--------------2-0-2----4--2h4p2--0-----------------------------------------|
A|------------------------------------0-0-2-4-2--4--2h4p2--0-2---------------|
E|-(13\)----0-3-------------------------------------------------3--0---------|
The slide at the start is optional, hard to hear over Duke's keyboards.

e|---------------------------------------------------------------------------|
B|---------------------------------------------------------------------------|
G|---------------------------------------------------------------------------|
D|------2-0-2----4--2h4p2--0-------------------------------------------------|
A|----------------------------0-0-2-4-2--4--2h4p2--0-2-----------------------|
E|--0-3-------------------------------------------------3--0----3/-----------|

Keyboards 1:14-3:18, guitar solo 3:18-4:50.
Main riff again, slowed down, with heavy wah and reverb. 5:02
e|---------------------------------------------------------------------------|
B|---------------------------------------------------------------------------|
G|---------------------------------------------------------------------------|
D|------2-0-2----4--2h4p2--0-------------------------------------------------|
A|----------------------------0-0-2-4-2--4--2h4p2--0-2-----------------------|
E|--0-3-------------------------------------------------3--0-----------------|

e|---------------------------------------------------------------------------|
B|---------------------------------------------------------------------------|
G|---------------------------------------------------------------------------|
D|------2-0-2----4--2h4p2--0-------------------------------------------------|
A|----------------------------0-0-2-4-2--4--2h4p2--0-2-----------------------|
E|--0-3-------------------------------------------------3--0-----------------|
Related for Eat That Question tab