Song name
# A B C D E F G H I J K L M N O P Q R S T U V W X Y Z

Frank Zappa - Aybe Sea tab

Help us improve GuitareTab! Take a short survey!
-----------------------------------------------------------------------------
			     Aybe Sea - Frank Zappa
-----------------------------------------------------------------------------
Tabbed by: cc
Email: manichispanic666@bellsouth.net

Tuning: standard

intro:

e|---------------------------------------------------------|-----------------|
B|-9--9-9-10-12--9--9-9-10-12--7--7h9p7-7-7h9p7-7-7h9p7-7--|-----------------|
G|-9-------------9-------------7---------------------------|-----------------|
D|-9-------------9-------------7---------------------------|---REPEAT--------|
A|---------------------------------------------------------|-----------------|
E|---------------------------------------------------------|-----------------|

e|------------5-------------------------8---------------|--------------------|
B|-5--5-5-7-8---8-7-5---5--8--8-8-10-11---11-10-8----8--|--------------------|
G|-5------------------7----8----------------------10----|--------------------|
D|-5-----------------------8----------------------------|--------------------|
A|------------------------------------------------------|--------------------|
E|------------------------------------------------------|--------------------|

e|----------------12-14-16--16h17-14--14h16-12--12h14-10--10h12-9-7-|--------|
B|--9--9-9-10-12----------------------------------------------------|--------|
G|--9---------------------------------------------------------------|--------|
D|--9---------------------------------------------------------------|-REPEAT-|
A|------------------------------------------------------------------|--------|
E|------------------------------------------------------------------|--------|
   i'm not sure exactly whats being played here, i just know its a C chord
   of some sort. i strum this:
e|-------|-------------------------------------------------------------------|
B|-----5-|-------------------------------------------------------------------|
G|-----5-|-------------------------------------------------------------------|
D|-----5-|---2-------------------2-------------------2-----------------------|
A|-3-3-3-|---0-0-0-0-0-0-3-2-0---0-0-0-0-0-0-----0---0-----------------------|
E|-------|---------------------3-------------0-3---3-------------------------|
   then it goes back to a variation of the intro riff and eventually piano.
Related for Aybe Sea tab