Song name
# A B C D E F G H I J K L M N O P Q R S T U V W X Y Z

Frank Zappa - Lonesome Cowboy Burt tab

#----------------------------------PLEASE NOTE---------------------------------#
#This file is the author's own work and represents their interpretation of the #
#song. You may only use this file for private study, scholarship, or research. #
#------------------------------------------------------------------------------##

                              LONESOME COWBOY BURT
                           As recorded by Frank Zappa
                     (From the 1971 Double Album 200 MOTELS)

Words and Music by Frank Zappa
Arranged by Frank Zappa
Transcribed by echidna

Gtr I (E A D G B E) - 'Untitled'
Gtr II (E A D G B E) - 'Untitled'
Gtr III (E A D G B E) - 'Untitled'
Gtr IV (E A D G B E) - 'Untitled'

 Intro
  Q=118
  N.C.            C5  (G5)C5  (G5)   C5  (G5)C5
 4/4
  Gtrs I, II
  H..       S S   E E E E E E E. S   E E E E q  Q
|-------------3-|---3---3---3----3-|---3---3-------||
|---------------|-1---3---1---3----|-1---3---1-----||
|---------------|------------------|---------------||
|---------------|------------------|---------------||
|---------------|------------------|---------------||
|---------------|------------------|---------------||


 Verse 1
  C5  (G5) C5  (G5)  Bb5 (F5)Bb5 (F5)  C5  (G5)C5  (G5)  Bb5 (F5)Bb5 (F5)
  E E E. S E E E E   E E E E E E E E   E E E E E E E E   E E E E E E E E
|---3----3---3---3-|-----------------|---3---3---3---3-|-----------------|
|-1---3----1---3---|---6---6-3-6---6-|-1---3---1---3---|---6---6-3-6---6-|
|------------------|-3---5-------3---|-----------------|-3---5-------3---|
|------------------|-----------------|-----------------|-----------------|
|------------------|-----------------|-----------------|-----------------|
|------------------|-----------------|-----------------|-----------------|


  C5  (G5)C5  (G5)  Bb5 (F5)Bb5 (F5)  C5  (G5)Bb5 (F5)  C5  (G5)C5
  E E E E E E E E   E E E E E E E E   E E E E E E E E   E E E E q  Q
|---3---3---3---3-|---------6-------|---------6-------|-8-------------||
|-1---3---1---3---|---6---6---6---6-|---8---8---6---6-|---8---8-------||
|-----------------|-3---5-------3---|-5---7-------3---|-----5---5-----||
|-----------------|-----------------|-----------------|---------------||
|-----------------|-----------------|-----------------|---------------||
|-----------------|-----------------|-----------------|---------------||


   Verse 2 & 3
    C5                                       Bb5
    E    E   E   E   E      E   E       E    E   E   E   E   E      E   E     E
||-------3-------3----------3-----------3--|------------------------------------|
||o-1--------3-------1----------3----------|-----6-------6---3------6---------6-|
||-----------------------------------------|-3-------5------------------3-------|
||-----------------------------------------|------------------------------------|
||o----------------------------------------|------------------------------------|
||-----------------------------------------|------------------------------------|
|
|   Gtr III
|   E a  S S S S S E   a  S S S S S a   E    S S S S S S S E   a  S S S S S a E
||----7-/8-8-x-x-8-x---7-/8-8-x-8-x-8-/10--|-6-6-6-6-x-x-6-x---5-/6-6-x-6-x-5-6-|
||o---7-/8-8-x-x-8-x---7-/8-8-x-8-x-8---8\-|-6-6-6-6-x-x-6-x---5-/6-6-x-6-x-5-6-|
||-----------------------------------------|------------------------------------|
||-----------------------------------------|------------------------------------|
||o----------------------------------------|------------------------------------|
||-----------------------------------------|------------------------------------|


    C5                                       Bb5
     E   E   E   E   E      E   E       E    E   E   E   E   E      E   E      E
|--------3-------3----------3-----------3--|----------------------------------------|
|----1-------3-------1----------3----------|-----6-------6---3------6----------6----|
|------------------------------------------|-3-------5------------------3-----------|
|------------------------------------------|----------------------------------------|
|------------------------------------------|----------------------------------------|
|------------------------------------------|----------------------------------------|
|
| a  s S S S S S S E   a  S S S S S a   E    S S S S S S S E   a  S S S S S a  E
|-7-/8-8-8-8-x-x-8-x---7-/8-8-x-8-x-8-/10--|-6-6-6-6-x-x-6-x---5-/6-6-x-6-x-5-/6----|
|-7-/8-8-8-8-x-x-8-x---7-/8-8-x-8-x-8---8\-|-6-6-6-6-x-x-6-x---5-/6-6-x-6-x-5-/6----|
|------------------------------------------|----------------------------------------|
|------------------------------------------|----------------------------------------|
|------------------------------------------|----------------------------------------|
|------------------------------------------|----------------------------------------|


    C5                                        Bb5
     E E   E   E   E      E     E        E    E   E   E   E   E      E   E      E
|------3-------3----------3--------------3--|-----------------6-------------------|
|----1-----3-------1------------3-----------|-----6-------6----------6----------6-|
|-------------------------------------------|-3-------5------------------3--------|
|-------------------------------------------|-------------------------------------|
|-------------------------------------------|-------------------------------------|
|-------------------------------------------|-------------------------------------|
|
| a  e S S S S S E   a  S S  S  S  S a   E    S S S S S S S E   a  S S S S S a  E
|-7-/8-8-8-x-x-8-x---7-/8-8-------/8-8-/10--|-6-6-6-6-x-x-6-x---5-/6-6-x-6-x-5-/6-|
|-7-/8-8-8-x-x-8-x---7-/x-8\---/8-/x-8---8\-|-6-6-6-6-x-x-6-x---5-/6-6-x-6-x-5-/6-|
|----------------------------5--------------|-------------------------------------|
|-------------------------------------------|-------------------------------------|
|-------------------------------------------|-------------------------------------|
|-------------------------------------------|-------------------------------------|


                                       1.
    C5              Bb5                C5
     E   E   E   E  E   E   E      E    E E   E   E     q  Q
|-------------------6----------------|--8------------------------||
|--------8-------8------6----------6-|----8-------8-------------o||
|----5-------7--------------3--------|--------5---------5--------||
|------------------------------------|---------------------------||
|------------------------------------|--------------------------o||
|------------------------------------|---------------------------||
|
| a  s S S S S S E  S S S S S S a  E    e S S S S S S a q  Q
|-7-/8-8-8-8-x-x-8\-6-6-6-6-x-x-5-/6-|-/8-8-8-x-x-8-x-7-8--------||
|-7-/8-8-8-8-x-x-8\-6-6-6-6-x-x-5-/6-|-/8-8-8-x-x-8-x-7-8-------o||
|------------------------------------|---------------------------||
|------------------------------------|---------------------------||
|------------------------------------|--------------------------o||
|------------------------------------|---------------------------||


  2.
  C5                   N.C.
 6/4
                       |3-| |3| |3|
   E  E   E   E     q  Q  E Q E Q E
|--8--------------------------------||
|-----8-------8---------------------||
|---------5---------5---------------||
|-----------------------------------||
|-----------------------------------||
|----------------------3--3-2-2-1-1-||
|
|  e  S S S S S S a q  H.
|-/8--8-8-x-x-8-x-7-8---------------||
|-/8--8-8-x-x-8-x-7-8---------------||
|-----------------------------------||
|-----------------------------------||
|-----------------------------------||
|-----------------------------------||
|
| Gtr IV
|                      |3-| |3| |3|
|  H.                  q  E q E q E
|-----------------------------------||
|-----------------------------------||
|-----------------------------------||
|----------------------5--5-4-4-3-3-||
|-----------------------------------||
|-----------------------------------||


 Chorus
  E5
 3/4
  H.                          H.
|--------------------------|----------------------------|
|--------------------------|----------------------------|
|--------------------------|----------------------------|
|--------------------------|----------------------------|
|--------------------------|----------------------------|
|--------------------------|----------------------------|
|
| |--3---| |--3--| |--3--|    |--3---| |--3--| |--3--|
| E   E  E E  E  E E  E  E    E   E  E E  E  E E  E  E
|-------12------12---12----|--------12------12---12-----|
|----12------12---------12-|-----12------12---------12--|
|-9--------9-------9-------|--9--------9-------9--------|
|--------------------------|----------------------------|
|--------------------------|----------------------------|
|--------------------------|----------------------------|
|
| <                           >
| H.                         +H.
|--------------------------|----------------------------|
|--------------------------|----------------------------|
|--------------------------|----------------------------|
|-2------------------------|-(2)------------------------|
|--------------------------|----------------------------|
|--------------------------|----------------------------|


  A5                   E5
  Gtr III
                       |--3---| |--3--| |--3--|    |--3---| |--3--| |--3--|
   q  H      H.        E   E  E E  E  E E  E  E    E   E  E E  E  E E  E  E
|-12-------|---------|-------12------12---12----|--------12------12---12-----|
|-10-------|---------|----12------12---------12-|-----12------12---------12--|
|----------|---------|-9--------9-------9-------|--9--------9-------9--------|
|----------|---------|--------------------------|----------------------------|
|----------|---------|--------------------------|----------------------------|
|----------|---------|--------------------------|----------------------------|
|
| Gtr IV
|                      <                           >
|  q  H      H.        H.                         +H.
|----------|---------|--------------------------|----------------------------|
|----------|---------|--------------------------|----------------------------|
|----------|---------|--------------------------|----------------------------|
|----------|---------|-2------------------------|-(2)------------------------|
|--0-------|---------|--------------------------|----------------------------|
|----------|---------|--------------------------|----------------------------|


  A5                   E5                         A5
                       |--3---| |--3--| |--3--|
   q  H      H.        E   E  E E  E  E E  E  E    q  H
|-12-------|---------|-------12------12---12----|-12-------|
|-10-------|---------|----12------12---------12-|-10-------|
|----------|---------|-9--------9-------9-------|----------|
|----------|---------|--------------------------|----------|
|----------|---------|--------------------------|----------|
|----------|---------|--------------------------|----------|
|
|                      >
|  q  H      H.        H.                          q  H
|----------|---------|--------------------------|----------|
|----------|---------|--------------------------|----------|
|----------|---------|--------------------------|----------|
|----------|---------|-2------------------------|----------|
|--0-------|---------|--------------------------|--0-------|
|----------|---------|--------------------------|----------|


  E5                         A5         E5                         A5
  |--3---| |--3--| |--3--|              |--3---| |--3--| |--3--|
  E   E  E E  E  E E  E  E    q  H      E   E  E E  E  E E  E  E    q  H
|-------12------12---12----|-12-------|-------12------12---12----|-12-------|
|----12------12---------12-|-10-------|----12------12---------12-|-10-------|
|-9--------9-------9-------|----------|-9--------9-------9-------|----------|
|--------------------------|----------|--------------------------|----------|
|--------------------------|----------|--------------------------|----------|
|--------------------------|----------|--------------------------|----------|
|
| >                                     >
| H.                          q  H      H.                          q  H
|--------------------------|----------|--------------------------|----------|
|--------------------------|----------|--------------------------|----------|
|--------------------------|----------|--------------------------|----------|
|-2------------------------|----------|-2------------------------|----------|
|--------------------------|--0-------|--------------------------|--0-------|
|--------------------------|----------|--------------------------|----------|


  D5
  |--3---| |--3--| |--3--|    |-3-| |--3--| |--3--|
  E   E  E E  E  E E  E  E    Q   E E  E  E E  E  E
|-------10------10---10----|-----10------10---10----|
|----10------10---------10-|----------10---------10-|
|-7--------7-------7-------|--7-----7-------7-------|
|--------------------------|------------------------|
|--------------------------|------------------------|
|--------------------------|------------------------|
|
| <                           >
| H.                         +H.
|--------------------------|------------------------|
|--------------------------|------------------------|
|--------------------------|------------------------|
|-0------------------------|-(0)--------------------|
|--------------------------|------------------------|
|--------------------------|------------------------|


       |--3--| |--3--|    |--3---| |--3--| |--3--|
   Q   E  E  E E  E  E    E   E  E E  E  E E  E  E
|-----------10---10----|--------10------10---10-----|
|--------10---------10-|-----10------10---------10--|
|--7---7-------7-------|--7--------7-------7--------|
|----------------------|----------------------------|
|----------------------|----------------------------|
|----------------------|----------------------------|
|
|  <                      >
| +H.                    +H.
|----------------------|----------------------------|
|----------------------|----------------------------|
|----------------------|----------------------------|
|-(0)------------------|-(0)------------------------|
|----------------------|----------------------------|
|----------------------|----------------------------|


  E5
  |--3---| |3-| |--3--|    |--3---| |--3--| |--3--|
  E   E  E Q  E E  E  E    E   E  E E  E  E E  E  E
|-------12---12---12----|--------12------12---12----|
|----12--------------12-|-----12------12---------12-|
|-9--------9----9-------|--9--------9-------9-------|
|-----------------------|---------------------------|
|-----------------------|---------------------------|
|-----------------------|---------------------------|
|
| <                        >
| H.                      +H.
|-----------------------|---------------------------|
|-----------------------|---------------------------|
|-----------------------|---------------------------|
|-2---------------------|-(2)-----------------------|
|-----------------------|---------------------------|
|-----------------------|---------------------------|


       |--3--| |--3--|    |--3---| |--3--| |3-|
   Q   E  E  E E  E  E    E   E  E E  E  E Q  E
|-----------12---12----|--------12------12---12-|
|--------12---------12-|-----12------12---------|
|--9---9-------9-------|--9--------9-------9----|
|----------------------|------------------------|
|----------------------|------------------------|
|----------------------|------------------------|
|
|  <                      >
| +H.                    +H.
|----------------------|------------------------|
|----------------------|------------------------|
|----------------------|------------------------|
|-(2)------------------|-(2)--------------------|
|----------------------|------------------------|
|----------------------|------------------------|


  D5                                A
           |3-|         |3-|  |3|            |3|    |--3--|  |-3--| |-3--|
  Q    Q   Q  E    Q    Q  E  Q E    Q    Q  Q E    E  E  E  E E  E E  E E
|---------10----|---------10------|------12------|----------12-9----9-------|
|-----10-----10-|------10----10---|-10---------9-|-10----10------10---10----|
|-7-------------|--7------------7-|----------9---|-----9-----------------9--|
|---------------|-----------------|--------------|--------------------------|
|---------------|-----------------|--------------|--------------------------|
|---------------|-----------------|--------------|--------------------------|
|
| <                >                 <              >
| H.              +H.                H.            +H.
|---------------|-----------------|--------------|--------------------------|
|---------------|-----------------|--------------|--------------------------|
|---------------|-----------------|--------------|--------------------------|
|-0-------------|-(0)-------------|--------------|--------------------------|
|---------------|-----------------|--0-----------|-(0)----------------------|
|---------------|-----------------|--------------|--------------------------|


  E5                                                  A
  |--3---| |--3--| |--3--|    |--3--|  |3|  |--3--|           |3|
  E   E  E E  E  E E  E  E    E   E E  Q E  E  E  E   Q   Q   Q E    Q   Q  Q
|-------12------12---12----|----------12------12----|-----------7-|------------|
|----12------12---------12-|-----12--------12----12-|--------10---|-10---8-----|
|-9--------9-------9-------|--9-----9----9----------|-----9-------|---------9--|
|--------------------------|------------------------|-7-----------|------------|
|--------------------------|------------------------|-------------|------------|
|--------------------------|------------------------|-------------|------------|
|
| <                           >                       <              >
| H.                         +H.                      H.            +H.
|--------------------------|------------------------|-------------|------------|
|--------------------------|------------------------|-------------|------------|
|--------------------------|------------------------|-------------|------------|
|-2------------------------|-(2)--------------------|-------------|------------|
|--------------------------|------------------------|-0-----------|-(0)--------|
|--------------------------|------------------------|-------------|------------|


  D5                                A
           |3-|         |3-|  |3|            |3|    |--3--|  |-3--| |-3--|
  Q    Q   Q  E    Q    Q  E  Q E    Q    Q  Q E    E  E  E  E E  E E  E E
|---------10----|---------10------|------12------|----------12-9----9-------|
|-----10-----10-|------10----10---|-10---------9-|-10----10------10---10----|
|-7-------------|--7------------7-|----------9---|-----9-----------------9--|
|---------------|-----------------|--------------|--------------------------|
|---------------|-----------------|--------------|--------------------------|
|---------------|-----------------|--------------|--------------------------|
|
| <                >                 <              >
| H.              +H.                H.            +H.
|---------------|-----------------|--------------|--------------------------|
|---------------|-----------------|--------------|--------------------------|
|---------------|-----------------|--------------|--------------------------|
|-0-------------|-(0)-------------|--------------|--------------------------|
|---------------|-----------------|--0-----------|-(0)----------------------|
|---------------|-----------------|--------------|--------------------------|


  E5
  |--3---| |--3--| |--3--|    |--3--|  |3|  |--3--|
  E   E  E E  E  E E  E  E    E   E E  Q E  E  E  E
|-------12------12---12----|----------12------12----|
|----12------12---------12-|-----12--------12----12-|
|-9--------9-------9-------|--9-----9----9----------|
|--------------------------|------------------------|
|--------------------------|------------------------|
|--------------------------|------------------------|
|
| <                           >
| H.                         +H.
|--------------------------|------------------------|
|--------------------------|------------------------|
|--------------------------|------------------------|
|-2------------------------|-(2)--------------------|
|--------------------------|------------------------|
|--------------------------|------------------------|


  A                         A5
   |-3--|  |-3--| |--3--|
   E E  E  E E  E E   E E    q  H
|---------12-9----9-------|-12-------||
|-10---10------10----10---|-10-------||
|----9------------------9-|--9-------||
|-------------------------|----------||
|-------------------------|----------||
|-------------------------|----------||
|
|  <
|  H              Q          q  H
|-------------------------|----------||
|-------------------------|----------||
|-------------------------|----------||
|-----------------0\------|----------||
|--0----------------------|--0-------||
|-------------------------|----------||


   Bridge
    Q=172                                     1.,2.
    C5    (G5)    C5    (G5)    C5    (G5)    C5    N.C.
   4/4
    Gtr IV
                                                    |-3-|
    Q  q  Q  q    Q  q  Q  q    Q  q  Q  q    q  E. T T T e e e e    3x
||--------------|-------------|-------------|-------5h6h7h8-5--------||
||o-------------|-------------|-------------|-----------------8-5---o||
||-----5-----5--|----5-----5--|----5-----5--|-5-----2-3-4-5-2--------||
||-----5-----5--|----5-----5--|----5-----5--|-5---------------5-2----||
||o-------------|-------------|-------------|-----------------------o||
||--------------|-------------|-------------|------------------------||


  3.
  N.C.    B5     C5      B5   C5      B5   C5      B5
  q  H    Q      q  H    Q    q  H    Q    q  H    Q
|------------||-------------|------------|------------|
|------------||o------------|------------|------------|
|-5-------4--||--5-------4--|-5-------4--|-5-------4--|
|-5----------||--5----------|-5----------|-5----------|
|------------||o------------|------------|------------|
|------------||-------------|------------|------------|


  C5      B5   C5      E5   F5      Db5  D5      Gb5
  q  H    Q    q  H    Q    q  H    Q    q  H    Q
|------------|------------|------------|------------|
|------------|---------5--|-6----------|---------7--|
|-5-------4--|-5----------|-5-------6--|-7----------|
|-5----------|-5----------|------------|-7----------|
|------------|------------|------------|------------|
|------------|------------|------------|------------|


  1.,2.
  G5
  >
                                         |-3-|
  W          +W           +H..       +S  T T T
|----------|------------|----------------5h6h7h|
|-8--------|-(8)--------|-(8)--------(8)-------|
|-7--------|-(7)--------|-(7)--------(7)-------|
|-5--------|-(5)--------|-(5)--------(5)-------|
|----------|------------|----------------------|
|----------|------------|----------------------|


  N.C.                          B5
  |3|    |3|      |3| |3|
  q E q  q E q    q E Q e +E  E Q   3x
|-8-5-----------|-------------------||
|-----8--5------|------------------o||
|----------7-5--|-5-----5-(5)---4---||
|---------------|---5h7-------------||
|---------------|------------------o||
|---------------|-------------------||


  3.
  G5                      D5      Gb5  G5                      D5      Gb5
  q   H.                  q  H    Q    q   H.                  q  H    Q
|-----------------------|------------|-----------------------|------------|
|-8---------------------|---------7--|-8---------------------|---------7--|
|-7---------------------|-7----------|-7---------------------|-7----------|
|-5---------------------|-7----------|-5---------------------|-7----------|
|-----------------------|------------|-----------------------|------------|
|-----------------------|------------|-----------------------|------------|
|
| Gtr I
|                  >                                    >
|                  ~~                                   ~~
|     |--3---|                             |--3---|
| Q   E   E  E  a  H      W            Q   E   E  E  a  H      W
|----15--------14s15----|------------|----15--------14s15----|------------|
|--------15-------------|------------|--------15-------------|------------|
|-----------12----------|------------|-----------12----------|------------|
|-----------------------|------------|-----------------------|------------|
|-----------------------|------------|-----------------------|------------|
|-----------------------|------------|-----------------------|------------|


  G5                      D5      Gb5  G5
                                          |3| |3| |3|
  q   H.                  q  H    Q    q  q E q E q E
|-----------------------|------------|-----------------||
|-8---------------------|---------7--|-8---------------||
|-7---------------------|-7----------|-7---------------||
|-5---------------------|-7----------|-5--5-5-4-4-3-3--||
|-----------------------|------------|-----------------||
|-----------------------|------------|-----------------||
|
|                  >
|                  ~~
|     |--3---|
| Q   E   E  E  a  H      W            W
|----15--------14s15----|------------|-----------------||
|--------15-------------|------------|-----------------||
|-----------12----------|------------|-----------------||
|-----------------------|------------|-----------------||
|-----------------------|------------|-----------------||
|-----------------------|------------|-----------------||


 Out-Chorus
  E5                                                     A5
 3/4
  Gtr III
  |--3---| |--3--| |--3--|    |--3---| |--3--| |--3--|
  E   E  E E  E  E E  E  E    E   E  E E  E  E E  E  E    q  H      H.
|-------12------12---12----|--------12------12---12----|-12-------|-------|
|----12------12---------12-|-----12------12---------12-|-10-------|-------|
|-9--------9-------9-------|--9--------9-------9-------|----------|-------|
|--------------------------|---------------------------|----------|-------|
|--------------------------|---------------------------|----------|-------|
|--------------------------|---------------------------|----------|-------|
|
| Gtr IV
| <                           >
| H.                         +H.                          q  H      H.
|--------------------------|---------------------------|----------|-------|
|--------------------------|---------------------------|----------|-------|
|--------------------------|---------------------------|----------|-------|
|-2------------------------|-(2)-----------------------|----------|-------|
|--------------------------|---------------------------|--0-------|-------|
|--------------------------|---------------------------|----------|-------|


  E5                                                     A5
  |--3---| |--3--| |--3--|    |--3---| |--3--| |--3--|
  E   E  E E  E  E E  E  E    E   E  E E  E  E E  E  E    q  H      H.
|-------12------12---12----|--------12------12---12----|-12-------|-------|
|----12------12---------12-|-----12------12---------12-|-10-------|-------|
|-9--------9-------9-------|--9--------9-------9-------|----------|-------|
|--------------------------|---------------------------|----------|-------|
|--------------------------|---------------------------|----------|-------|
|--------------------------|---------------------------|----------|-------|
|
| <                           >
| H.                         +H.                          q  H      H.
|--------------------------|---------------------------|----------|-------|
|--------------------------|---------------------------|----------|-------|
|--------------------------|---------------------------|----------|-------|
|-2------------------------|-(2)-----------------------|----------|-------|
|--------------------------|---------------------------|--0-------|-------|
|--------------------------|---------------------------|----------|-------|


  E5                         A5         E5
  |--3---| |--3--| |--3--|              |--3---| |--3--| |--3--|
  E   E  E E  E  E E  E  E    q  H      E   E  E E  E  E E  E  E
|-------12------12---12----|-12-------|-------12------12---12----|
|----12------12---------12-|-10-------|----12------12---------12-|
|-9--------9-------9-------|----------|-9--------9-------9-------|
|--------------------------|----------|--------------------------|
|--------------------------|----------|--------------------------|
|--------------------------|----------|--------------------------|
|
| >                                     >
| H.                          q  H      H.
|--------------------------|----------|--------------------------|
|--------------------------|----------|--------------------------|
|--------------------------|----------|--------------------------|
|-2------------------------|----------|-2------------------------|
|--------------------------|--0-------|--------------------------|
|--------------------------|----------|--------------------------|


  A5         E5                         A5
             |--3---| |--3--| |--3--|
   q  H      E   E  E E  E  E E  E  E    q  H
|-12-------|-------12------12---12----|-12-------|
|-10-------|----12------12---------12-|-10-------|
|----------|-9--------9-------9-------|----------|
|----------|--------------------------|----------|
|----------|--------------------------|----------|
|----------|--------------------------|----------|
|
|            >
|  q  H      H.                          q  H
|----------|--------------------------|----------|
|----------|--------------------------|----------|
|----------|--------------------------|----------|
|----------|-2------------------------|----------|
|--0-------|--------------------------|--0-------|
|----------|--------------------------|----------|


  D5
  |--3---| |--3--| |--3--|    |-3-| |--3--| |--3--|
  E   E  E E  E  E E  E  E    Q   E E  E  E E  E  E
|-------10------10---10----|-----10------10---10----|
|----10------10---------10-|----------10---------10-|
|-7--------7-------7-------|--7-----7-------7-------|
|--------------------------|------------------------|
|--------------------------|------------------------|
|--------------------------|------------------------|
|
| <                           >
| H.                         +H.
|--------------------------|------------------------|
|--------------------------|------------------------|
|--------------------------|------------------------|
|-0------------------------|-(0)--------------------|
|--------------------------|------------------------|
|--------------------------|------------------------|


       |--3--| |--3--|    |--3---| |--3--| |--3--|
   Q   E  E  E E  E  E    E   E  E E  E  E E  E  E
|-----------10---10----|--------10------10---10-----|
|--------10---------10-|-----10------10---------10--|
|--7---7-------7-------|--7--------7-------7--------|
|----------------------|----------------------------|
|----------------------|----------------------------|
|----------------------|----------------------------|
|
|  <                      >
| +H.                    +H.
|----------------------|----------------------------|
|----------------------|----------------------------|
|----------------------|----------------------------|
|-(0)------------------|-(0)------------------------|
|----------------------|----------------------------|
|----------------------|----------------------------|


  E5
  |--3---| |3-| |--3--|    |--3---| |--3--| |--3--|
  E   E  E Q  E E  E  E    E   E  E E  E  E E  E  E
|-------12---12---12----|--------12------12---12----|
|----12--------------12-|-----12------12---------12-|
|-9--------9----9-------|--9--------9-------9-------|
|-----------------------|---------------------------|
|-----------------------|---------------------------|
|-----------------------|---------------------------|
|
| <                        >
| H.                      +H.
|-----------------------|---------------------------|
|-----------------------|---------------------------|
|-----------------------|---------------------------|
|-2---------------------|-(2)-----------------------|
|-----------------------|---------------------------|
|-----------------------|---------------------------|


       |--3--| |--3--|    |--3---| |--3--| |3-|
   Q   E  E  E E  E  E    E   E  E E  E  E Q  E
|-----------12---12----|--------12------12---12-|
|--------12---------12-|-----12------12---------|
|--9---9-------9-------|--9--------9-------9----|
|----------------------|------------------------|
|----------------------|------------------------|
|----------------------|------------------------|
|
|  <                      >
| +H.                    +H.
|----------------------|------------------------|
|----------------------|------------------------|
|----------------------|------------------------|
|-(2)------------------|-(2)--------------------|
|----------------------|------------------------|
|----------------------|------------------------|


  Q=100
  D5                                A
           |3-|         |3-|  |3|            |3|    |--3--|  |-3--| |-3--|
  Q    Q   Q  E    Q    Q  E  Q E    Q    Q  Q E    E  E  E  E E  E E  E E
|---------10----|---------10------|------12------|----------12-9----9-------|
|-----10-----10-|------10----10---|-10---------9-|-10----10------10---10----|
|-7-------------|--7------------7-|----------9---|-----9-----------------9--|
|---------------|-----------------|--------------|--------------------------|
|---------------|-----------------|--------------|--------------------------|
|---------------|-----------------|--------------|--------------------------|
|
| <                >                 <              >
| H.              +H.                H.            +H.
|---------------|-----------------|--------------|--------------------------|
|---------------|-----------------|--------------|--------------------------|
|---------------|-----------------|--------------|--------------------------|
|-0-------------|-(0)-------------|--------------|--------------------------|
|---------------|-----------------|--0-----------|-(0)----------------------|
|---------------|-----------------|--------------|--------------------------|


  E5                                                  A
  |--3---| |--3--| |--3--|    |--3--|  |3|  |--3--|           |3|
  E   E  E E  E  E E  E  E    E   E E  Q E  E  E  E   Q   Q   Q E    Q   Q  Q
|-------12------12---12----|----------12------12----|-----------7-|------------|
|----12------12---------12-|-----12--------12----12-|--------10---|-10---8-----|
|-9--------9-------9-------|--9-----9----9----------|-----9-------|---------9--|
|--------------------------|------------------------|-7-----------|------------|
|--------------------------|------------------------|-------------|------------|
|--------------------------|------------------------|-------------|------------|
|
| <                           >                       <              >
| H.                         +H.                      H.            +H.
|--------------------------|------------------------|-------------|------------|
|--------------------------|------------------------|-------------|------------|
|--------------------------|------------------------|-------------|------------|
|-2------------------------|-(2)--------------------|-------------|------------|
|--------------------------|------------------------|-0-----------|-(0)--------|
|--------------------------|------------------------|-------------|------------|


  D5                                A
           |3-|         |3-|  |3|            |3|    |--3--|  |-3--| |-3--|
  Q    Q   Q  E    Q    Q  E  Q E    Q    Q  Q E    E  E  E  E E  E E  E E
|---------10----|---------10------|------12------|----------12-9----9-------|
|-----10-----10-|------10----10---|-10---------9-|-10----10------10---10----|
|-7-------------|--7------------7-|----------9---|-----9-----------------9--|
|---------------|-----------------|--------------|--------------------------|
|---------------|-----------------|--------------|--------------------------|
|---------------|-----------------|--------------|--------------------------|
|
| <                >                 <              >
| H.              +H.                H.            +H.
|---------------|-----------------|--------------|--------------------------|
|---------------|-----------------|--------------|--------------------------|
|---------------|-----------------|--------------|--------------------------|
|-0-------------|-(0)-------------|--------------|--------------------------|
|---------------|-----------------|--0-----------|-(0)----------------------|
|---------------|-----------------|--------------|--------------------------|


  E5
  |--3---| |--3--| |--3--|    |--3--|  |3|  |--3--|
  E   E  E E  E  E E  E  E    E   E E  Q E  E  E  E
|-------12------12---12----|----------12------12----|
|----12------12---------12-|-----12--------12----12-|
|-9--------9-------9-------|--9-----9----9----------|
|--------------------------|------------------------|
|--------------------------|------------------------|
|--------------------------|------------------------|
|
| <                           >
| H.                         +H.
|--------------------------|------------------------|
|--------------------------|------------------------|
|--------------------------|------------------------|
|-2------------------------|-(2)--------------------|
|--------------------------|------------------------|
|--------------------------|------------------------|


                            Outro
  A                          A5
   |-3--|  |-3--| |--3--|
   E E  E  E E  E E   E E     q  H      Wx2
|---------12-9----9-------||-12-------|--------*|
|-10---10------10----10---||-10-------|--------*|
|----9------------------9-||--9-------|--------*|
|-------------------------||----------|--------*|
|-------------------------||----------|--------*|
|-------------------------||----------|--------*|
|
|  <
|  H              Q           q  H      Wx2
|-------------------------||----------|--------*|
|-------------------------||----------|--------*|
|-------------------------||----------|--------*|
|-----------------0\------||----------|--------*|
|--0----------------------||--0-------|--------*|
|-------------------------||----------|--------*|


Duration Legend
---------------
W - whole; H - half; Q - quarter; E - 8th; S - 16th; T - 32nd; X - 64th; a - acciaccatura
+ - note tied to previous; . - note dotted; .. - note double dotted
Uncapitalized letters represent notes that are staccato (1/2 duration)
Irregular groupings are notated above the duration line
Duration letters will always appear directly above the note/fret number it represents the
duration for.  Duration letters with no fret number below them represent rests.  Multi-
bar rests are notated in the form Wxn, where n is the number of bars to rest for.  Low
melody durations appear below the staff

Tablature Legend
----------------
 h   - hammer-on
 p   - pull-off
 b   - bend
 pb  - pre-bend
 r   - bend release (if no number after the r, then release immediately)
 /\  - slide into or out of (from/to "nowhere")
 s   - legato slide
 S   - shift slide
  - natural harmonic
[n]  - artificial harmonic
n(n) - tapped harmonic
 ~   - vibrato
 tr  - trill
 T   - tap
 TP  - trem. picking
 PM  - palm muting
\n/  - tremolo bar dip; n = amount to dip
 \n  - tremolo bar down
 n/  - tremolo bar up
/n\  - tremolo bar inverted dip
 =   - hold bend; also acts as connecting device for hammers/pulls
 <>  - volume swell (louder/softer)
 x   - on rhythm slash represents muted slash
 o   - on rhythm slash represents single note slash

Misc Legend
-----------
 |  - bar
||  - double bar
||o - repeat start
o|| - repeat end
*|  - double bar (ending)
 :  - bar (freetime)
 $  - Segno
 &  - Coda
Tempo markers -  = BPM(8/16=s8/s16), where s8 = swing 8ths, s16 = swing 16ths


***************************************************************************************
* Generated using Power Tab Editor by Brad Larsen - http://powertab.guitarnetwork.org *
***************************************************************************************
Tap to rate this tab
# A B C D E F G H I J K L M N O P Q R S T U V W X Y Z