Song name
# A B C D E F G H I J K L M N O P Q R S T U V W X Y Z

Frank Zappa - Oh No tab

-----------------------------------------------------------------
Oh No - Frank Zappa
-----------------------------------------------------------------
Tabbed by: IBuriedPaul

This is a really catchy tune called "Oh No".  It was featured as the third movement on 
Gravy Part 1.  It was also turned into a song on Weasels Ripped My Flesh and has been 
in other albums as well.  I played it by ear on the keyboard and then transcribed it.


Tuning: Standard

e|----------------------------------------------0-----------------------|
B|--3------------0------------------3---2----0-------3--2--0------------|
G|-----0-----2------------------0--------2-------------------2--0-------|
D|--------2---------4--2----2--4----------------------------------------|
A|-----------------------2----------------------------------------------|
E|----------------------------------------------------------------------|


That's basically the main part of it.
Tap to rate this tab
# A B C D E F G H I J K L M N O P Q R S T U V W X Y Z