Song name
# A B C D E F G H I J K L M N O P Q R S T U V W X Y Z

Frank Zappa - Eat That Question tab

     E  E  E  E  H           Q    S S S S H           E  E  E  E  Q    S S S S  
E||-----------------------|------------------------|---------------------------|
B||-----------------------|------------------------|---------------------------|
G||-----------------------|------------------------|---------------------------|
D||--------2--0--2--------|--4----2-4-2-0----------|---------------------------|
A||-----------------------|---------------0--------|--0--2--4--2--4----2-4-2-0-|
E||--0--3-----------------|------------------------|---------------------------|


  S S E  E  E  Q    Q       E  E  E  E  H           Q    S S S S H         
-------------------------|-----------------------|------------------------|
-------------------------|-----------------------|------------------------|
-------------------------|-----------------------|------------------------|
-------------------------|--------2--0--2--------|--4----2-4-2-0----------|
--2-0----0--2------------|-----------------------|---------------0--------|
------3--------3----0----|--0--3-----------------|------------------------|


  E  E  E  E  Q    S S S S    S S E  E  E  Q    Q       E  E  E  E  H         
---------------------------|-------------------------|-----------------------|
---------------------------|-------------------------|-----------------------|
---------------------------|-------------------------|-----------------------|
---------------------------|-------------------------|--------2--0--2--------|
--0--2--4--2--4----2-4-2-0-|--2-0----0--2------------|-----------------------|
---------------------------|------3--------3----0----|--0--3-----------------|


  Q    S S S S H           E  E  E  E  Q    S S S S    S S E  E  E  Q    Q      
------------------------|---------------------------|-------------------------||
------------------------|---------------------------|-------------------------||
------------------------|---------------------------|-------------------------||
--4----2-4-2-0----------|---------------------------|-------------------------||
---------------0--------|--0--2--4--2--4----2-4-2-0-|--2-0----0--2------------||
------------------------|---------------------------|------3--------3----0----||




Duration Legend
---------------
W - whole
H - half
Q - quarter
E - 8th
S - 16th
T - 32nd
X - 64th
. - note dotted
|-n-|  - n-tuplets
Tap to rate this tab
# A B C D E F G H I J K L M N O P Q R S T U V W X Y Z