Song name
# A B C D E F G H I J K L M N O P Q R S T U V W X Y Z

Frank Zappa - The Eric Dolphy Memorial Barbecue tab

						The Eric Dolphy Memorial Barbecue
      
	                                                                          
      W                 S X.    X Q.      Q    S. X.    X E   Q     Q     S.X.  
E||--------------------10----|----9------------------|-------------------------|
B||--12----------------------|-----------11----------|-------12----------11----|
G||--------------------------|-----------------------|-------------------------|
D||--------------------------|-----------------------|-------------10----------|
A||--------------------------|-----------------------|-------------------------|
E||--------------------------|-----------------------|-------------------------|
 
 
  X  E   S  S Q     E  S  T.X    X H         E.  T. X    Q    X  Q.      S.X.  
-------------------------10---|----9------------------|---------10------------|
----10--12---------12---------|-------------11--------|-----------------11----|
------------------------------|-----------------------|-----------------------|
-----------10-----------------|-----------------------|-----------------------|
------------------------------|-----------------------|-----------------------|
------------------------------|-----------------------|-----------------------|
 
 
                               |-----3-----|                 
  Q    X  Q     E.  T. X    X  Q     Q     Q     E   S  T.X  
---------11--------------|----12----------13--------14------|
---------------11--------|----------11----------11-----11---|
-------------------------|----------------------------------|
-------------------------|----------------------------------|
-------------------------|----------------------------------|
-------------------------|----------------------------------|
 
 
  X  S  S  S  S  S  S  S  S  S  S S. X.    S X  S  S  S  Q     S  S  S  T.X  
----15-------13-12----------10-14-------|------------10-13----10----11-13---|
-------------------14-13----------------|------13---------------------------|
-------13-12----------------------------|------------------------10---------|
-------------------------13-------------|---------13------------------------|
----------------------------------------|-----------------------------------|
----------------------------------------|-----------------------------------|
 
 
  X S  T T  T  T  T T  T  T  T T  S  Q    T. X  
-----------------10---16-----------------------|
-----------10------------15-13-----------------|
------12------12-----------------12-11---------|
-----------------------------------------------|
-----------------------------------------------|
-----------------------------------------------|
 
 
                                             3     3               
  Q    S. X.  S  S  S  S  S  S X    E  T. X  Q     Q     E.  T. X  
-------------10----------13-11---|--------------------------------|
----------------13---------------|----------12----12----10--------|
-------------------12-10---------|--------------------------------|
---------------------------------|--------------------------------|
---------------------------------|--------------------------------|
---------------------------------|--------------------------------|
 
 
  Q    X  Q.      S.X.    Q    X  Q     E.  T. X  
-----------------------|-------------------------|
---------12------------|---------12--------------|
-----------------13----|---------------12--------|
-----------------------|-------------------------|
-----------------------|-------------------------|
-----------------------|-------------------------|
 
 
     |-----3-----|                                          
  X  Q     Q     Q     E   S T. X    X H        E   S  T.X  
----------------------------------|------------------------|
----12----------12--------12------|-------------------10---|
----------11----------10-----9----|------------------------|
----------------------------------|----------------13------|
----------------------------------|------------------------|
----------------------------------|------------------------|
 
 
                         3                3     3        3        
  X  S  E.   S  S  S  S  Q     S X    S.  Q     Q     S  Q     S. 
-------12------------12-16---------|--------------------16-------|
----11---------10-11----------15---|-----13-------------------15-|
-----------------------------------|-----------12----11----------|
------------13---------------------|-----------------------------|
-----------------------------------|-----------------------------|
-----------------------------------|-----------------------------|
 
 
  S X  E.  Q     E.  T. X    E  X  Q.      E.  T. X    H.            
----------------15--------|-------14------16--------|---------------|
------13------------------|-------------------------|---------------|
--------------------------|-------------------------|---------------|
--------------------------|-------------------------|---------------|
--------------------------|-------------------------|---------------|
--------------------------|-------------------------|---------------|
 
 
  X H         E.  T. X    X  Q     Q     E.  T. X    H.            
-----------------------|----------------10--------|---------------|
-------------10--------|----13----12--------------|---------------|
-----------------------|--------------------------|---------------|
-----------------------|--------------------------|---------------|
-----------------------|--------------------------|---------------|
-----------------------|--------------------------|---------------|
 
 
  H.              X Q     Q.     S. X.    H        X E.  T. X  
---------------|-----------------------|----------------------|
---------------|-----------------------|-------------8--------|
---------------|-----------------------|----------------------|
---------------|---------11------------|----------------------|
---------------|-----------------------|----------------------|
---------------|-----------------------|----------------------|
 
 
  H        X  E.  T. X    Q.     X  Q    S. X.    X H         E.  T. X  
-----------------------|-----------------------|-----------------------|
-----------------------|-----------12----------|-----------------------|
-----------------------|-----------------------|-----------------------|
-------------11--------|-----------------------|-------------11--------|
-----------------------|-----------------------|-----------------------|
-----------------------|-----------------------|-----------------------|
 
 
  H.              X Q.     E  S S.  S X.    Q.     X Q    S. X.  
---------------|-------------------------|-----------8----------|
---------------|-----------8--8----------|----------------------|
---------------|----------------9--------|----------------------|
---------------|-------------------11----|----------------------|
---------------|-------------------------|----------------------|
---------------|-------------------------|----------------------|
 
 
  H.              X S  T  T  S  S  S  S  S  S  S  S S. X.  
---------------|------15-14-------15----------------------|
---------------|------------16-17----------17-------------|
---------------|---------------------17-16----15-14-------|
---------------|------------------------------------------|
---------------|------------------------------------------|
---------------|------------------------------------------|
 
 
  X  S  S  S  S  S  S  S  S E.  T. X    Q    X  S  S  S  S  T  T  T T  S  T.X  
-------------12----------12----------|---------------------16-----------------|
-------------------------------------|------------------16----15-13-----------|
-------14-15-------14-15-------------|------------14-15---------------12-11---|
----13----------13-------------------|---------13-----------------------------|
-------------------------------------|----------------------------------------|
-------------------------------------|----------------------------------------|
 
 
                                3     3                
  X  H        S S  S  T.X    X  Q     Q     Q.     T   
------------------12------|--------------------------||
----------------9----13-L-|--------------------------||
--------------------------|----12----11--------------||
----11--------------------|----------------11--------||
--------------------------|--------------------------||
--------------------------|--------------------------||
 
 
 
 
Duration Legend
---------------
W - whole
H - half
Q - quarter
E - 8th
S - 16th
T - 32nd
X - 64th
. - note dotted
|-n-|  - n-tuplets
 
 
Tablature Legend
----------------
L - tied note
x - dead note
g - grace note
(n) - ghost note
> - accentuded note
NH - natural harmonic
AH - artificial harmonic
TH - tapped harmonic
SH - semi harmonic
PH - pitch harmonic
h - hammer on
p - pull off
b - bend
br - bendRelease
pb - preBend
pbr - preBendRelease
brb - bendReleaseBend
\n/ - tremolo bar dip
\n - tremolo bar dive
-/n - tremolo bar Release up
/n\ - tremolo bar inverted dip
/n - tremolo bar return
-\n - tremolo bar Release down
S - shift slide
s - legato slide
/ -  slide into from below or out of upwards
\ -  slide into from above or out of downwards
~ - vibrato
W - wide vibrato
tr - tril'
TP - tremolo picking
T - tapping
S - slap
P - pop
< - fade in
^ - brush up
v - brush down
Tap to rate this tab
# A B C D E F G H I J K L M N O P Q R S T U V W X Y Z