Frank Zappa - Lets Make The Water Turn Black Live tab

Artist: Frank Zappa and The Mothers of Invention
Song: Lets Make The Water Turn Black (Live)
Album: Ahead of Their Time
Year: 1968, released 1993
Tabbed by DoteStudios
Email is undermywheels71@gmail.com

Here's my tab of the catchy tune by the greatest composer of the 20th century, Mr. Frank 
If you have any questions or requests send me an email (provided in the information above.)

KEYS:
h - hammer on
/ \ - slide

E-------3-------------------------------------------------------------------------|
B----------5--5--3--5-------------------------------------------------------------|
G----------------------4--4-----2--2--4-----2----2--2--2--5--4----5--5--5--8--7---|
D-5--5-----------------------5-----------5----------------------------------------|
A---------------------------------------------------------------------------------|
E---------------------------------------------------------------------------------|

E-------3------------------------------------------------------3---4---4------3---|
B----------5--5--3--5--------------------------------3--6--4-------------4--------|
G----------------------4--4-----2--2--4-----2----3-------------------------5------|
D-5--5-----------------------5-----------5----------------------------------------|
A---------------------------------------------------------------------------------|
E---------------------------------------------------------------------------------|

E-------3-------------------------------------------------------------------------|
B----------5--5--3--5-------------------------------------------------------------|
G----------------------4--4-----2--2--4-----2----2--2--2--5--4----5--5--5--8--7---|
D-5--5-----------------------5-----------5----------------------------------------|
A---------------------------------------------------------------------------------|
E---------------------------------------------------------------------------------|

E-------3-------------------------------------------------------------------|
B----------5--5--3--5--------------------------------3--6--5--3--5---5/7----|
G----------------------4--4-----2--2--4-----2----3--------------------------|
D-5--5-----------------------5-----------5----------------------------------|
A---------------------------------------------------------------------------|
E---------------------------------------------------------------------------|

E--------------------------------------------------------------------------------|
B--------------------------------------------------------------------------------|
G-----------------------------------------------------------/5---4---------------|
D----5------5--7---5--7--7/12---9--------------------9--7-----------7--5--4------|
A-5------5-------------------------10--8----10---10--------------------------5---|
E--------------------------------------------------------------------------------|

E--------------------------------------------------------------------|
B------------------------------------.----------------------.--------|
G------------------------------------7----7--5--------------5--------|
D----5------5--7---5--7--7/8---7--5-------------6--6--3--6------5\---|
A-5------5-----------------------------------------------------------|
E--------------------------------------------------------------------|

E----3-------------------------------------------------------------------------|
B-------5--5--3--5-------------------------------------------------------------|
G-------------------4--4-----2--2--4-----2----2--2--2--5--4----5--5--5--8--7---|
D-5-----------------------5-----------5----------------------------------------|
A------------------------------------------------------------------------------|
E------------------------------------------------------------------------------|

E-------3-----------------------------------------------------------------|
B----------5--5--3--5-----------------------------------------------------|
G----------------------4--4-----2--2--4-----2----2---2--5--4--2------2----|
D-5--5-----------------------5-----------5-----------------------5--------|
A-------------------------------------------------------------------------|
E-------------------------------------------------------------------------|

Guitar (with Wah pedal)
E--------------------------------7------------------------------------------|
B-3-/5------------------0h8/10--------------3-/5-----------.--.-------------|
G-------4--4-----4------------------9--6----------4--4-----4--4-----4--2----|
D-------------5------5----------------------------------5--------5----------|
A---------------------------------------------------------------------------|
E---------------------------------------------------------------------------|

E---------------------------------3-----------------------------------------|
B-3-/5-------------------------5-----7----3/5-----------.--.----------------|
G-------4--4-----4------4--5-------------------4--4-----4--4-----4--5/7-wah-|
D-------------5------5-------------------------------5--------5-------------|
A---------------------------------------------------------------------------|
E---------------------------------------------------------------------------|

E--------------------------------------------------------------------------------|
B--------------------------------------------------------------------------------|
G-----------------------------------------------------------/5---4---------------|
D----5------5--7---5--7--7/12---9--------------------9--7-----------7--5--4------|
A-5------5-------------------------10--8----10---10--------------------------5---|
E--------------------------------------------------------------------------------|

E--------------------------------------------------------------------|
B------------------------------------.----------------------.--------|
G------------------------------------7----7--5--------------5--------|
D----5------5--7---5--7--7/8---7--5-------------6--6--3--6------5\---|
A-5------5-----------------------------------------------------------|
E--------------------------------------------------------------------|

E----3-------------------------------------------------------------------------|
B-------5--5--3--5-------------------------------------------------------------|
G-------------------4--4-----2--2--4-----2----2--2--2--5--4----5--5--5--8--7---|
D-5-----------------------5-----------5----------------------------------------|
A------------------------------------------------------------------------------|
E------------------------------------------------------------------------------|

E-------3---------------------------------------|--------------------------|----|
B----------5--5--3--5---------------------------|--------------------------|----|
G----------------------4--4-----2--2--4-----2---|-2---2--5--4--2------2----|-2x-|
D-5--5-----------------------5-----------5------|-----------------5--------|----|
A-----------------------------------------------|--------------------------|----|
E-----------------------------------------------|--------------------------|----|
Tap to rate this tab
 
# A B C D E F G H I J K L M N O P Q R S T U V W X Y Z