Song name
# A B C D E F G H I J K L M N O P Q R S T U V W X Y Z

Frank Zappa - Dont Eat The Yellow Snow tab

-------------------------------------------------------------------------------
			     Donít Eat The Yellow Snow Ė Frank Zappa
-------------------------------------------------------------------------------
Tabbed by: Shrew

Tuning: DADGBE
BPM: 138


Wind effect for 13 seconds.

Riff 1

   D                     G6/D          D                       G6/D
e|-------------------2-----0---------|--------------------2-----0-------------|
B|-------------------3-----0---------|--------------------3-----0-------------|
G|-2----2----2-------2-----0---------|-2----2----2--------2-----0-------------|
D|-4----4----4-----------------------|-4----4----4----------------------------|
A|-5----5----5-----------------------|-5----5----5----------------------------|
D|-----------------------------------|----------------------------------------|

Riff 2

e|-----------------------------------|------------------------------------------|
B|-----------------------------------|------------------------------------------|
G|-----------------------------------|------------------------------------------|
D|-0--0------------------------------|--0--0------------------------------------|
A|----------2--0-----------------0-2-|----------2--0-----------------0--2-------|
D|----------------4--0----0---4------|-----------------4--0----0---4------------|

    D              C  C#   D                              C     C#     D
  Dreamed I was an Es-ki-mo.____
e|------------------------------10-13-12-11-10-------------------------------|
B|---------------------------------------------14-13-12---12-----------12-11-|
G|------------------------------------------------------13---13---13---------|
D|---------------------------------------------------------------------------|
A|---------------------------------------------------------------------------|
D|---------------------------------------------------------------------------|

 Keyboard arr.
   D      D       C    C#   D    D         D         C    C#    D
e|----------------------------------------------------------------------------|
B|----------------------------------------------------------------------------|
G|-2------2-------0----1----2----2---------2---------0----1-----2-------------|
D|-4------4-------2----3----4----4---------4---------2----3-----4-------------|
A|-5------5-------3----4----5----5---------5---------3----4-----5-------------|
E|----------------------------------------------------------------------------|



  Boop,    boop,   da, da, da, da,    ba,    ba, ya, da.
e|-------------------2-----0-----------------------------2-----0----------------|
B|-------------------3-----0-----------------------------3-----0----------------|
G|-2----2----2-------2-----0----------2----2----2--------2-----0----------------|
D|-4----4----4------------------------4----4----4-------------------------------|
A|-5----5----5------------------------5----5----5-------------------------------|
D|------------------------------------------------------------------------------|


Frozen wind began to blow.___
e|----------------------------------------------------------------------------|
B|----------------------------------------------------------------------------|
G|-2------2-------0----1----2----2---------2---------0----1-----2-------------|
D|-4------4-------2----3----4----4---------4---------2----3-----4-------------|
A|-5------5-------3----4----5----5---------5---------3----4-----5-------------|
E|----------------------------------------------------------------------------|
                                     Under My boots Ďn a-round__ my__ toe___
e|---------------------2-----0----0--|---------------------0------0-----0----|
B|---------------------3-----0----0--|---------------------0------0-----0----|
G|-2-----2-----2-------2-----0----0--|-2-----2-----2-------19-----17----17---|
D|-4-----4-----4---------------------|-4-----4-----4-------19-----17----17---|
A|-5-----5-----5---------------------|-5-----5-----5-------17-----15---------|
E|-----------------------------------|---------------------------------------|

  had bit the ground be Ė low.____   (Boop, boop, ah_______, ya,_____ ya,_____)
e|---------------------2-----0----0--|---------------------0------0-----0----|
B|---------------------3-----0----0--|---------------------0------0-----0----|
G|-2-----2-----2-------2-----0----0--|-2-----2-----2-------19-----17----17---|
D|-4-----4-----4---------------------|-4-----4-----4-------19-----17----17---|
A|-5-----5-----5---------------------|-5-----5-----5-------17-----15---------|
E|-----------------------------------|---------------------------------------|

                                             D                    G6/D
      Was a hun Ė dred_de  -  grees__ be-low ze Ė ro.        Boo.__
e|-----------------------------------------|-----------------2-----0------0--|
B|-----------------------------------------|------3----------3-----0------0--|
G|-2----2-----0---1----2----2----0---1---2-|------2----x-----2-----0------0--|
D|-4----4-----2---3----4----4----2---3---4-|-4---------x---------------------|
A|-5----5-----3---4----5----5----3---4---5-|-5---------x---------------------|
D|-----------------------------------------|---------------------------------|


  D             D6sus2  Cadd9/D       D                    G6/D
                      And my mom-ma cried:_  Boo,___ a, hoo,      hoo, ooo__
e|-----------------0------0-----0---|----------------2------0-----0----------|
B|------3----------0------0-----0---|-----3----------3------0-----0----------|
G|------2---x------7------5-----5---|-----2---x------2------0-----0----------|
D|-4--------x------7------5-----5---|---------x------------------------------|
A|-5--------x-----------------------|-4-------x------------------------------|
D|----------------------------------|-5--------------------------------------|

  And my momma cried:_    Na-nook, a, no, no, __________           Na-nook___
e|---------------2-------0-----0----|----------------2------0-----0----------|
B|------3--------3-------0-----0----|-----3----------3------0-----0----------|
G|------2---x----2-------0-----0----|-----2---x------2------0-----0----------|
D|-4--------x-----------------------|---------x------------------------------|
A|-5--------x-----------------------|-4-------x------------------------------|
D|----------------------------------|-5--------------------------------------|

   ____  a no, no.________     Donít  be a naugh - ty Es Ė ki -  mo wo oh.
e|-----------------0------0-----0---|----------------2------0-----0----------|
B|------3----------0------0-----0---|-----3----------3------0-----0----------|
G|------2---x------7------5-----5---|-----2---x------2------0-----0----------|
D|-4--------x------7------5-----5---|-4-------x------------------------------|
A|-5--------x-----------------------|-5-------x------------------------------|
E|----------------------------------|----------------------------------------|

   D                     C/D
                                     Save your mon-ey: donít go to the show._
e|------------------------0--------|-----------------------------------------|
B------3------3-----7-----0----0---|-----------------------------------------|
G|-----2------2--2--7-----5----5---|-2---2-----0--1---2---2----2----0--1--2--|
D|-4-------x-----4--7-----5--------|-4---4-----2--3---4---4----4----2--3--4--|
A|-5-------x-----5-----------------|-5---5-----3--4---5---5----5----3--4--5--|
E|---------------------------------|-----------------------------------------|








  D                    G6/D        D                     G6/D
                            Well, I turned a Ė round _ aní I   said:
e|------------------2---0--------|-------------------2---0--------|
B|-----3------------3---0--------|-----3-------3-----3---0--------|
G|-----x------2-----2---0---x----|-----2-------2-----2---0---x----|
D|-4---4---4----4-----------x----|-4--------4-----x----------x----|
A|-5------------------------x----|-5--------5-----x----------x----|
E|-------------------------------|--------------------------------|

    Ho,     ho.__    (Boo!) Well, I     turned a- round _ aní I said:
e|-------------------2----0-----------|-------------------2---0--------|
B|------3------3-----3----0-----------|-----3-------3-----3---0--------|
G|------2------2--2--2----0----2------|-----2-------2-----2---0---x----|
D|--4-------4-----4-------------------|-4--------4-----x----------x----|
A|--5-------5-------------------------|-5--------5-----x----------x----|
E|------------------------------------|--------------------------------|

   Ho,    ho.___         Well, I turned a Ė round _______    aní I said:
e|-------------------2----0-----------|-------------------2---0--------|
B|------3------3-----3----0-----------|-----3-------3-----3---0--------|
G|------2------2--2--2----0----2------|-----2-------2-----2---0---x----|
D|--4-------4-----4-------------------|-4--------4-----x----------x----|
A|--5-------5-------------------------|-5--------5-----x----------x----|
E|------------------------------------|--------------------------------|

   Ho,    ho.___ Aní the Northern Lights  commenced tí glow.__  An she said:
e|-------------------2----0-----------|-------------------2---0--------|
B|------3------3-----3----0-----------|-----3-------3-----3---0--------|
G|------2------2--2--2----0----2------|-----2-------2-----2---0---x----|
D|--4-------4-----4-------------------|-4--------4-----x----------x----|
A|--5-------5-------------------------|-5--------5-----x----------x----|
E|------------------------------------|--------------------------------|

                    with a tear in her eye:
e|-------------------2----0-----------|-------------------2---0--------|
B|------3------3-----3----0-----------|-----3-------3-----3---0--------|
G|------2------2--2--2----0----2------|-----2-------2-----2---0---x----|
D|--4-------4-----4-------------------|-4--------4-----x----------x----|
A|--5-------5-------------------------|-5--------5-----x----------x----|
E|------------------------------------|--------------------------------|

N.C.
   Watch out where the huskies go aní donít you eat that yellow snow.
e|---------------------------------------------------------------------------|
B|---------------------------------------------------------------------------|
G|---------------------------------------------------------------------------|
D|---------------------------------------------------------------------------|
A|---------------------------------------------------------------------------|
E|---------------------------------------------------------------------------|

   Watch out where the huskies go aní donít you eat that yellow snow.
e|-10\-----------------------------------------------------------------------|
B|-10\-----------------------------------------------------------------------|
G|---------------------------------------------------------------------------|
D|---------------------------------------------------------------------------|
A|---------------------------------------------------------------------------|
E|---------------------------------------------------------------------------|





************************************

| /   slide up
| \   slide down
| h   hammer-on
| p   pull-off
| ~   vibrato
| +   harmonic
| x   Mute note
| b   Bend
| pb  Pre-bend
| br  Bend release
| pbr Pre-bend release
| brb Bend release bend

***********************************
Tap to rate this tab
# A B C D E F G H I J K L M N O P Q R S T U V W X Y Z