Frank Zappa - Im The Slime tab

I'm the Slime -Frank Zappa


e|---------------------------------------------||
B|---------------------------------------------| |
G|---------------------------------------------|  |
D|-----------2----4---------2------------------|   |
A|------4--------------4---------4-2-0-2-4-2---|    |
E|---------------------------------------------|     |
                                                      |
                                                       |> Play twice
                                                      |
e|---------------------------------------------|     |
B|---------------------------------------------|    |
G|---------------------------------------------|   |
D|-----------2----4---------2------------------|  |
A|------4--------------4---------4-2-0-2-4-----| |
E|-----------------------------------------5--2||



e|------------------------------------------||
B|------------------------------------------| |
G|------------------------------------------|  |> Play 
D|------2-----------------2-----------------|  |> 4 times
A|-----------5--4--0--2---------------------| |
E|------------------------------------------||

And on the fourth time you play it play this
                    \/
e|-------------------------------------------|
B|-------------------------------------------|
G|-------------------------------------------|
D|------2------------------------------------|
A|-----------5--4--0--2----------------------|
E|-----------------------2-------------------|



The song is in the key of D.
Tap to rate this tab
 
# A B C D E F G H I J K L M N O P Q R S T U V W X Y Z