Song name
# A B C D E F G H I J K L M N O P Q R S T U V W X Y Z

Frank Zappa - Crew Slut tab

Crew Slut
Frank Zappa
From the album Joes Garage (1979)
Standard Tuning

Main Theme

e|----------------------------|
B|----------------------------|
G|----------------------------|
D|-----10--9-7----------------|
A|-----8---7-5----------------|
E|----------------------------|

Chorus

e|----------------------------|
B|----------------------------|
G|----9-7---9---7-------------|
D|----7-5---7---5---5-5-5-7---|
A|------------------3-3-3-5---|
E|----------------------------|

I haven't worked out the solo but you could just improvise using the D minor pentatonic scale:

e|------------------------------------------10----|
B|----------------------------------10--13--------|
G|--------------------------10--12----------------|
D|------------------10--12------------------------|
A|----------10--12--------------------------------|
E|--10--13----------------------------------------|
Tap to rate this tab
# A B C D E F G H I J K L M N O P Q R S T U V W X Y Z