Song name
# A B C D E F G H I J K L M N O P Q R S T U V W X Y Z

Frank Zappa - Torture Never Stops tab

Help us improve GuitareTab! Take a short survey!
	#_____________________________________________#
	|       Frank Zappa - Torture Never Stops     |
	| You Can't Do That on Stage Anymore, Vol. 4  |
	|            Tabbed by Paul Wilson            |
	#_____________________________________________#

Main Riff                 Harmonica or trumpet
                          or whatever

E||----------------------|--13b15b13------------|----------------------||
B||----------------------|----------13-13~------|----------------------||
G||--8--5~~~-------------|----------------------|----------------------||
D||---------8-5----------|----------------------|----------------------||
A||-------------8-6------|----------------------|----------------------||
E||-----------------8-6-8|----------------------|----------------------||

Theres way too much harmonica/trumpet or whatever to ta it all, but its around that shape.
For the rest of them use the Bb scale and improvise.
Here is the scale for those who don't know it
E||-------------------------------------------------------11--13--15--18--20---||
B||---------------------------------------------11--13-------------------------||
G||-------------------------------8--10--12------------------------------------||
D||----------------------8--10-------------------------------------------------||
A||----------6--8--10----------------------------------------------------------||
E||---6--8---------------------------------------------------------------------||

Tablature Legend
----------------
b Bend
~ small vibrato

*update*
updated it to include the scale to help others that dont know it so they dont have to 
for it and to try make it a bit more compleate and accurate. Also to fix a stupid mistake. 
are appreciated!
Related for Torture Never Stops tab