Song name
# A B C D E F G H I J K L M N O P Q R S T U V W X Y Z

Frank Zappa - Dumb All Over tab

On 'You are what you is' the guitar is played way too well for me to realize what's being played. But the 
version on 'Have I offended someone?' is much more recognizable. (If you haven't heard it, I'm sure you 
get a sound clip from CDNOW or someplace.)
Oh, and of course I haven't figured out to solo yet.
"Dumb all over"  tabbed by Trevor Senter

E|-----------------------------------------------------------------------|
B|-----------------------------------------------------------------------|
G|--------5-5-------9\7-----------5-5-------9\7--------------------------|
D|--------5-5-------9\7-----------5-5-------9\7--------------------------|
A|-0-0-0--3-3--3-0--7\5----0-0-0--3-3--3-0--7\5--------------------------|
E|-----------------------------------------------------------------------|

Verses:
               fast slide
E|----------------------------------------------------------------|
B|----------------------------------------------------------------|
G|----------------------------------------------------------------|
D|----------------------------------------------------------------|
A|-----0--3-3--0--6\5---0--3-3--0--6\5----------------------------|
E|----------------------------------------------------------------|
That's basically it. Simple tune, magnificent sound.
Tap to rate this tab
# A B C D E F G H I J K L M N O P Q R S T U V W X Y Z