Song name
# A B C D E F G H I J K L M N O P Q R S T U V W X Y Z

Frank Zappa - Im The Slime tab

-----------------------------------------------------------------------------
			     Im The Slime - Frank Zappa
-----------------------------------------------------------------------------


Tabbed by: Zach Sine
Email: Dragforce92@comcast.net

Tuning:Standard

                

e|-------------------------------------------------------------------------|
B|-------------------------------------------------------------------------|
G|-------------------------------------------------------------------------|
D|---2-4---2---------------------------------------------------------------|
A|-4-----4---4p2p0h2h4p2---------------------------------------------------|
E|-------------------------------------------------------------------------|

e|-------------------------------------------------------------------------|
B|-------------------------------------------------------------------------|
G|-------------------------------------------------------------------------|
D|---2-4---2---------------------------------------------------------------|
A|-4-----4---4p2p0h2h4p0---------------------------------------------------|
E|-----------------------2-------------------------------------------------|


e|-------------------------------------------------------------------------|
B|-------------------------------------------------------------------------|
G|-7/9-7-6-----9---7/9-7-6-----9---7/9-7-6-----9---------------------------|
D|---------7-9-------------7-9-------------7-9---10-9-7--------------------|
A|------------------------------------------------------10-9-8-------------|
E|-------------------------------------------------------------------------|
| /  slide up
| \  slide down
| h  hammer-on
| p  pull-off
| ~  vibrato
| +  harmonic
| x  Mute note
============================================================================
Tap to rate this tab
# A B C D E F G H I J K L M N O P Q R S T U V W X Y Z