Song name
# A B C D E F G H I J K L M N O P Q R S T U V W X Y Z

Frank Zappa - Apostrophe tab

Help us improve GuitareTab! Take a short survey!
#----------------------------------PLEASE NOTE---------------------------------#
#This file is the author's own work and represents their interpretation of the #
#song. You may only use this file for private study, scholarship, or research. #
#------------------------------------------------------------------------------##

                                   APOSTROPHE
                           As recorded by Frank Zappa
                        (From the 1974 Album APOSTROPHE)

Words and Music by Frank Zappa
Arranged by Frank Zappa
Transcribed by Hal Leonard/EvilDignity

Gtr I (E A D G B E) - 'Untitled'
Gtr II (E A D G B E) - 'Untitled'
Gtr III (E A D G B E) - 'Untitled'

 Intro
  Moderately Slow Q=86
  N.C.
 4/4
  Gtr III
  H               E     S   +S  +S    +S  +S    +S
|---------------------------------------------------|
|---------------------------------------------------|
|---------------------------------------------------|
|-----------------------7b9r(7)-(7)b9r(7)-(7)b9r(7)-|
|---------------------------------------------------|
|---------------------------------------------------|
|
| Gtr II
| S S S S +E  S S S S a S    S  +E.              S
|---------------------------------------------------|
|---------------------------------------------------|
|---------------------------------------------------|
|---------------------7s9s===7--(7)s============19--|
|-------5-(5)-5---5---------------------------------|
|-0-3-7---------7---7-------------------------------|
|
| Gtr I
| S S S S +E  S S S S a S    S  +Q
|---------------------------------------------------|
|---------------------------------------------------|
|---------------------------------------------------|
|---------------------7s9----7--(7)-----------------|
|-------5-(5)-5---5---------------------------------|
|-0-3-7---------7---7-------------------------------|


    H               E     S   +S  +S    +S  +S    +S    3x
||------------------------------------------------------||
||o----------------------------------------------------o||
||------------------------------------------------------||
||------------------------7b9r(7)-(7)b9r(7)-(7)b9r(7)---||
||o----------------------------------------------------o||
||------------------------------------------------------||
|
|   S S S S +E  S S S S a S    S  +E.              S    3x
||------------------------------------------------------||
||o----------------------------------------------------o||
||------------------------------------------------------||
||----------------------7s9----7--(7)s============19----||
||o-------5-(5)-5---5----------------------------------o||
||--0-3-7---------7---7---------------------------------||
|
|   S S S S +E  S S S S   S   +S  +Q                    3x
||------------------------------------------------------||
||o----------------------------------------------------o||
||------------------------------------------------------||
||------------------------7b9r(7)-(7)-------------------||
||o-------5-(5)-5---5----------------------------------o||
||--0-3-7---------7---7---------------------------------||


                                            Instrumental
  G   A   Em          G   A   Em             D
  H          Q.   E   H          E  e Q      W
|-------------------|---------------------||-----------------------------|
|-------------------|---------------------||-----------------------------|
|-------------------|---------------2-----||-----------------------------|
|-------------------|------------2--------||-----------------------------|
|-------------------|---------------------||-----------------------------|
|------------0s===5-|------------0s=====5-||-----------------------------|
|                     H          Q.     E
|
| H          Q.   E   W                      W
|-------------------|---------------------||-----------------------------|
|-------------------|---------------------||-----------------------------|
|-------------------|---------------------||-----------------------------|
|------------2s===7-|---------------------||-----------------------------|
|-------------------|---------------------||-----------------------------|
|-------------------|---------------------||-----------------------------|
|
|                                              PM----|
| E S S E E +H        E S S E E +H           S S  S  S e S S E. S e S S
|-------------------|---------------------||-----------------------------|
|-3---5---8-(8)-----|-3---5---8-(8)-------||-----------7-----------------|
|-4---6---9-(9)-----|-4---6---9-(9)-------||-7---------7---7------7-7-7--|
|-5---7---9-(9)-----|-5---7---9-(9)-------||-7---------7---7------7-7-7--|
|-5---7---7-(7)-----|-5---7---7-(7)-------||-5-5-(5)-5-5---5----5-5-5-5--|
|-3---5---0-(0)-----|-3---5---0-(0)-------||--------------------5--------|


  D                         C#    C                    Csus2
  Gtr I
  S S S S e S S S S S S s s s s   Q  S E S S S S S E S S
|-------------------------------|----------------------3-|
|-7-x-x---7-------------7-7-6-6-|-5--------------------3-|
|-7-x-x---7-----7-------7-7-6-6-|-5--x-------x---x-x-x-x-|
|-7-x-x---7-----7-----x-7-7-6-6-|-5--x-------x---x-x-x-5-|
|-5-----5-5-5-5-5-5---x-5-5-4-4-|-3--x---3---x---x-x-x---|
|-------------------------------|------------------------|


  Csus2                             Dsus2
  +S  S E E S S S S S S +S  S S S   E E E. S E S S E S S
|-(3)---3-3-3---------------------|-----------------------|
|-(3)---3-3---3-----3-------3-5---|-----5------------5----|
|-------5-5-----5-----5-(5)-----5s|=7---7----7-----7------|
|-(5)---5-5-------5-------------5s|=7-7-7--7-7-7-7-7---5s=|
|-----3-------------------------3s|=5----------5-5-5---5s=|
|---------------------------------|--------------------3s=|


  Dsus2               Csus2  C                     CsCs2 CsusC     Csus2
  E S S E. S Q  S S S S   Q  S S S S S S E S E S   E S S S E S +E  Q  E
|-----------------------|------------0---------0-|-------0----------------|
|---------------------3-|-3------1-1---1-1---1---|-3-1-1---3-1-(1)-3--x/--|
|---7-7-7--7-7--7-7---0-|-0------0-0---0---0-----|---0-0-----0-(0)----x/--|
|-7-7-7-7--7-7--7-7-----|-x--2-------------2-----|---2-2--------------x/--|
|-7-5-5-5--5-5--5-5-0---|-3--3-------------3-----|---3-3------------------|
|-5-5-5-5---------------|------3-----------------|------------------------|


  D                DsDs4        DsDs4             C
  Q  S S S S E S S e S S   E. S e S S E E e s S   Q  +S  S S S Q  s S S S
|------------------------|----------------------|-------------------------|
|-7----------7-x---8-7---|-7----8-7-------------|--------------5------5-5-|
|-7--7-7-7-7-7-x---7-7-7-|-7--7-7-7-7-7-------7s|=5--(5)-5-5-5-5------5-5-|
|-7--7-7-7-7-7-x-7-7-7-7-|-7--7-7-7-7-7---7-7-7s|=5--(5)-5-5-5-5--5---5-5-|
|-5--5-5-5-------5-5-5-5-|-5----5-----5---5-5---|--------3-3-3-3--3-3-3-3-|
|------------------------|----------------------|-------------------------|


  C                     D
                              PM|
  Q  S S S S Q  E S S   E S S S S S S E. S S S S S   Q  e T T  S Q  E S S
|---------------------|----------------------------|-----------------------|
|-5--5-----5-5--5-----|---------------7------------|-7--7------7-7---------|
|-5--5---5-5-5--5-5-5s|=7-7-------7-7-7--7---7-7h9-|-7--7------7-7--x-x----|
|-5--5---5-5-5--5-5-5s|=7-7-7-----7-7-7--7---------|-7--7--------7--x-x----|
|-3--3-3-3---3--3-3-3s|=5---5-5-5--------5---------|-5--------h5-5--x-x-0--|
|---------------------|----------------------------|------5h7p=5-----------|


  C                                        D
  Q  E E E. S S S E   S E S Q  E S S +E  S S   Q  S E S S E. E S S
|-------------------|------------------------|----------------------|
|-5--5--------5-3---|-------5------5-(5)-5S7-|-7----7---7-7--7-7-7--|
|-5--5---5----5---5-|---5-5-5--5---5-(5)-5S7-|-7--7-----7-7--7-7-7--|
|-5--5-5-5--5-5---5-|---5-5-5--5-5-------5S7-|-7--7---7---7--7-7-7--|
|--------3----------|-3------------------3S5-|-5--5----------5-5-5--|
|-------------------|------------------------|----------------------|


  D                      C                        C                      D
  Q  S E S S E. S S E    Q  S E S S S S S E S S   Q  E S S +S  S S S E S S
|----------------------|------------------------|--------------------------|
|-7----7-----7----7----|-5----5-----------5-----|--------------5-----5-----|
|-7--7-7-7-7----7---7\-|-5----5-----5-----5-----|-5----5-5-(5)---5-----5s7-|
|-7--7-7-7-7----7---7\-|-5--5---5-----5---5-5-5-|-5----5-5-(5)-----5---5s7-|
|-5--5-----5----5------|-3--3-----3-----3---3-3-|-3--3-3-3-(3)---------3s5-|
|----------------------|------------------------|--------------------------|


  D
  E. S E. S S E S E S S   Q.   S S +Q.   E
|-----------------------|------------------||
|------7----------------|------------------||
|-7--7-7------7---7---7-|-7----7-7-(7)-----||
|-7--7-7--7-7---7---7---|-7----7-7-(7)-----||
|-5---------------------|-5----5-5-(5)-----||
|-----------------------|-5----------------||


 Pre-Solo
  B5
  H    +Q.   E   S    +E. +E     +S  +S     +Q.   E
|--------------|--------------------------------------||
|--------------|-9b10r(9)-(9)b10r(9)-(9)b10-(9)-------||
|-4----(4)-----|-9b11r(9)-(9)b11r(9)-(9)b11-(9)-------||
|-4----(4)---0-|--------------------------------------||
|-2----(2)-----|--------------------------------------||
|--------------|--------------------------------------||


 Guitar Solo
  N.C.
                              ~                                ~
  T T S T T S E. S E    T T S Q    T T S T T S E. S E    T T S Q
|-5p2-0-0h5h7-7--0-9b11-7--------|-5p2-0-0h5h7-7--0-9b11-7---------|
|-------------------------7------|-------------------------7-------|
|---------------------------9-7--|---------------------------9-7---|
|--------------------------------|---------------------------------|
|--------------------------------|---------------------------------|
|--------------------------------|---------------------------------|


                              ~
  T T S T T S E. S E    T T S Q    T T S T T S E. S E    T T S S S S S
|-5p2-0-0h5h7-7--0-9b11-7--------|-5p2-0-0h5h7-7--0-9b11-7-----------------|
|-------------------------7------|-------------------------7---------------|
|---------------------------9-7--|---------------------------9-7---7-9b11==|
|--------------------------------|-------------------------------9---------|
|--------------------------------|-----------------------------------------|
|--------------------------------|-----------------------------------------|


  S +T  T E T T T T E S S T T S S S S S
|---------------------------------------|
|-----------7---------------------------|
|-9r(9)p7-9---9p7-----7-----------------|
|-----------------9p7---7-9p7-----------|
|-----------------------------9s7-5-7s9-|
|---------------------------------------|


                      |-----6------|       |---3---|
  S S S S S S S S    +S  S S  S S  S      +T   +T  T S T T S
|--------------------------9----------------------------------|
|------------------------7---10-7-10b12==(10)r(10)p7----------|
|-----7-7-------9b11-(9)-----------------------------9-9p7----|
|-7-9-----9-7-9--------------------------------------------9--|
|-------------------------------------------------------------|
|-------------------------------------------------------------|


                              ~
                                        |-3-|
  S T T a  E T S. S S +S  T T E a T T S S S S
|---------------------------------------------|
|-------------------7-(7)---7-----------------|
|-7-----9s11s9p7--9-------9---9-7h9p7---------|
|---9p7-------------------------------9-7h9-7-|
|---------------------------------------------|
|---------------------------------------------|


  |-3-| |3| |----6----| |----6----| |-3-| |-3--|
  S S S E S S S S S S S S S S S S S S S S E    S
|------------------------------------------------|
|----------------------------------------------7-|
|---------------7-------------7---7-9p7-9-9b11---|
|-------------7---7h9-7h9p7-9---9----------------|
|-9s7-5-7-7s9------------------------------------|
|------------------------------------------------|


  S  S  +T   T S s  T  T S s  T  T T  T T  a T T    +T  T T S a S S
|-7--------------7---------7------------7---------------------------|
|---12-(12)s10p7---12p10p7---12p10p7h10-----------------------------|
|-----------------------------------------10s9-9b11r(9)p7-----------|
|---------------------------------------------------------9p7-------|
|-------------------------------------------------------------9s7-7-|
|-------------------------------------------------------------------|


  |3| |-3-| |3|
  E S S S S E S S S +E  S S +S  S S S
|-----------------------------------------|
|-----------------------------------------|
|---------7-7---7s6-(6)-7-7-(7)---7-9b11--|
|-------7-----9-----------------9---------|
|-5-7s9-----------------------------------|
|-----------------------------------------|


   |-----6------|       |-3--|  |-3-|  |3-|     |-3--|
  +S  S S  S S  S      +S    E  S S S +E  S    +S  S S a T T S S  S
|-------7------10b12==(10)r-10-!7-----------------------------------|
|---------10p7-----------------!7-----------------------------------|
|-(9)-7---------------------------9p7-(7)-9b11r(9)p7----------------|
|----------------------------------------------------9-7h9p7--------|
|------------------------------------------------------------9-7-10-|
|-------------------------------------------------------------------|


  |-3-|
  S S S S S T T S S S E S S T T S S T T
|----------------------------------------|
|----------------------------------------|
|-------------------------------7-7------|
|-----------------------------7-----9p7--|
|-9s7p5-7-5-7p5-------5-5h7s9------------|
|---------------7-5h7--------------------|


  S    S S T T S    S E S S S  S s T T E
|----------------------------------------|
|---------------------------7-10-7-------|
|-9b11-9-7-----9b11-9-7--------------9-7h|
|----------9p7----------9-0--------9-----|
|----------------------------------------|
|----------------------------------------|


          |-3-|
  T T T T T T T S E T T T T S S a S S T S. T T T T
|--------------------------------------------------|
|--------------------------------------------------|
|-9p7-----7----------------------------------------|
|-----9p7---9p7h9-7-9p7-9p7---7-----7-9p7--7-------|
|---------------------------9---7h9----------9s7p5-|
|--------------------------------------------------|


  S S S S T T S S S S S S S S  a  E.
|------------------------------------|
|---------------------------7-10s12--|
|-------------------------7----------|
|-------------------------7----------|
|-7-7-7-5-7p5-------5-7s9------------|
|-------------7-5-7------------------|


   S  S  S     S  T  T  S  E  T  T T T S S  T S. a  T T S
|-------12b14-12-10-12p10-10-----------7-7-------7---------|
|-10-10----------------------12p10s7-7-----10p7-----x------|
|--------------------------------------------------10s9p7--|
|----------------------------------------------------------|
|----------------------------------------------------------|
|----------------------------------------------------------|


  ~~~~
  E    +S  S S S S  a  S  S S S T  T  +E. S
|--------------7--------------7-7-----------|
|----------------7-10s12s10p7-----10-(10)p7-|
|-9b11-(9)p7--------------------------------|
|------------9------------------------------|
|-------------------------------------------|
|-------------------------------------------|


                                 |-3--|
  S  S  +T   T T  T T  T  T T S  T  T T  E  T T S T T S e
|-------------------7h12p10p7-7----------------------------|
|---12-(12)p10p7h11-----------7-12p10p7-10\----------------|
|-------------------------------------------9p7---7-----7/-|
|-----------------------------------------------9-7-9p7-7/-|
|----------------------------------------------------------|
|----------------------------------------------------------|


                                   |-3--|
   T T  T  T T T  S  S. a  T  T T  T  T T  S. T E  T T T T E
|--------------7h10h12--7h12---------------------------------|
|-12p7-12p10p7---------------10p7-12p10p7h10--7------------7-|
|-----------------------------------------------9-11s9-----7-|
|------------------------------------------------------7-----|
|--------------------------------------------------------9---|
|------------------------------------------------------------|


      |-3--|           |---3---|
   S  T  T T a  T  S.  T  T  S S S  S      +S   +S  S  T T S S T T S
|------------7h10h12-------------7--------------------------------------|
|-12-12p10p7-x--------12-12p10p7---10b12==(10)r(10)p7-10p7--------------|
|------------0---------------------------------------------9-7-0--------|
|----------------------------------------------------------------9p7----|
|-----------------------------------------------------------------------|
|-----------------------------------------------------------------------|


  S S S S S    +S  a T T T T S S S S S S T T a  S
|-------------------------------------------------|
|-------------------------------------------------|
|-6---7-7-9b11r(9)-7h9p7---------7-----------9s11-|
|-7-9--------------------9-9-7-9---7-9-7-9p7------|
|-------------------------------------------------|
|-------------------------------------------------|


  S S S S S    +S  a T T T T S S S S S S T T a  S
|-------------------------------------------------|
|-------------------------------------------------|
|-6---7-7-9b11r(9)-7h9p7---------7-----------9s11-|
|-7-9--------------------9-9-7-9---7-9-7-9p7------|
|-------------------------------------------------|
|-------------------------------------------------|


                                                       ~~~~
                                          |-3-|        |--3---|
   S a  a T T a  S a  a T T +S  a  S a  a S S S E     +S  +S  S S S S S
|------------------------------------------------------------------------|
|----x-------------x-----------------x-----------------------------------|
|-11---11s9p7-9s11---11s9p7-(7)-9s11---11s9p7h9-9b11==(9)r(9)p7---7------|
|---------------------------------------------------------------9---7h9--|
|------------------------------------------------------------------------|
|------------------------------------------------------------------------|


                    |-3-|
  E +S  S S E S +S  T T T S S S S S S   S S S S S S S S S S E +E. S
|-------------------------------------|--------------------------------|
|-------------------------------------|--------------------------------|
|-------------------------------------|---2-2h4-4p2-4-4s7-4-2-(2)-4b7==|
|-9-(9)s0-2s4-2-(2)-0-----0-0-0---0-2s|=4------------------------------|
|---------------------2p0-------2-----|--------------------------------|
|-------------------------------------|--------------------------------|


  +S  +T  T S S S S  S S   +S  S S S S S S S
|--------------------------------------------|
|--------------------------------------------|
|-(4)r(4)p2-4-2-4-4-/9-7b8-(7)-4p2-2h4-2-4-4-|
|--------------------------------------------|
|--------------------------------------------|
|--------------------------------------------|


  +S    +S  S S S S S S +S      S S S S S S S
|------------------------------------------------|
|------------------------------------------------|
|-(4)b7-(4)-2-2-4-2S9-7-(7)b7.5-4-2-2-2h4-2-4b6==|
|------------------------------------------------|
|------------------------------------------------|
|------------------------------------------------|


  +T  +T  S S S S S  S S   +S  S S S +S  S S S
|----------------------------------------------|
|----------------------------------------------|
|-(4)r(4)p2-4-2-4---/9-7b8-(7)-4-2-2-(2)h4-4-2-|
|-----------------0----------------------------|
|----------------------------------------------|
|----------------------------------------------|


            |-3-|
  T T T T S T T T S S S S a S T T T T S S S S S
|-----------------------------------------------|
|-----------------------------------------------|
|-4p2-4p2---2-----------------------------------|
|---------4---4p2p0-0-2-4-2h4p2p0-2p0---0-------|
|-------------------------------------2---0-0h2-|
|-----------------------------------------------|


  T  T T T T  T T T T  T T T T  T S S E    +T  T a T T S S S
|----------------------------7------7------------------------|
|-7h10p7p0-7h10p7p0-7h10p7p0---10p7--------------------------|
|-------------------------------------9b11r(9)p7---7-----7---|
|------------------------------------------------9---9p7---7-|
|------------------------------------------------------------|
|------------------------------------------------------------|


                        |-3-|                 |-3-|
  T  T  T T S S T T S a S S S S E  T T  S S a S S S
|-------------------------------------------7h9p7----|
|-x-10-10p7p0-7---------------0-7-10p7-10p7----------|
|---------------7h9p7---7-------------------------9--|
|---------------------9---9p7------------------------|
|----------------------------------------------------|
|----------------------------------------------------|


           |---3----| |-3-|
   T T T T S    +S  S S S S S S S S S S S  S S  S
|-------------------------------------------------|
|-10----------------------------------------------|
|----9p7h9-9b11r(9)p7-------9-7--------------9----|
|---------------------9-7---9-7-----7--------9----|
|---------------------------7-5-7s9---9-9s11---\6-|
|-------------------------------------------------|


  a S S S S S S S S S S S S S S S S
|-----------------------------------|
|-----------------------------------|
|-----------------------------------|
|-------7---------------------------|
|-7s9-9---9s7-5-----5---5---7p5-5-7-|
|---------------7-7---7---7---------|


  a S S S S +S   E  S  +S  E  S  +S  S  S  S
|--------------------------9-12-(12)-9-------|
|------------------10-(10)-------------10----|
|---------9-(9)-11------------------------11-|
|-----7-7------------------------------------|
|-7s9----------------------------------------|
|--------------------------------------------|


   E  E  S S  E  +Q   S  S  S  S
|------------------------------------|
|-----------------------12-15-15b19==|
|-11-11-11p9-11-(11)-----------------|
|------------------------------------|
|------------------------------------|
|------------------------------------|


   +E   +E   +E   +T   S.  S  E  T  T  E  T  T  S
|-------------------------12-------------12-------|
|-(15)-(15)-(15)r(15)p12-----15-15p12-15----15p12-|
|-------------------------------------------------|
|-------------------------------------------------|
|-------------------------------------------------|
|-------------------------------------------------|


                                ~~~~~~~
   S  S  S  S  a     +S   S  S  S  +Q   S  S  E
|-12-----------------------------------------------|
|----15-15-12-15b19-(15)-15-12-12-(12)----12-15b19-|
|--------------------------------------------------|
|--------------------------------------------------|
|--------------------------------------------------|
|--------------------------------------------------|


                                                    |--3--|
   +Q    +S   +S   S  S  S  S  S  T  T  a  T  T  S  S  S  S
|-----------------------------------------------------------|
|-(15)--(15)r(15)-12-15-15-12-15-15p12-12h15p12----17p12h15-|
|-----------------------------------------------15----------|
|-----------------------------------------------------------|
|-----------------------------------------------------------|
|-----------------------------------------------------------|


   |--3--|
   T  T  T  S  S  T  T  S  T  T  S  S  S  S  E  +S   S  S S
|-------------12-------12-------12-10-----------------------|
|-17p15p12h15-------12----15p12-------12-10-12-(12)-11-12s7-|
|----------------14-----------------------------------------|
|-----------------------------------------------------------|
|-----------------------------------------------------------|
|-----------------------------------------------------------|


   S. T S  S  +T   T S  S. T S  S  +T  T S T S.S T T
|----------------------------------------------------|
|-11p10p7-12-(12)p10p7-11p10p7-10-(10)p9p7-9p8p7-7---|
|--------------------------------------------------9p|
|----------------------------------------------------|
|----------------------------------------------------|
|----------------------------------------------------|


                          |-3-|
  T s T S T T S S S S S S S S S S S S  S
|---------------------------------7---12---|
|-----------------------------------7-12---|
|-7-------7--------------------------------|
|---9-9p7---7-------------7-9-7------------|
|-------------7-9s7-5-7s9------------------|
|------------------------------------------|


    |---5----|  |--3--|             |3-|            |3-|          |3|
   +T   T S  T  S  S  S +T  S   T   E  S  +S   T T  e  S  +T  T S E S
|---------------------------------------------------------------------|
|-(12)p10p7-10-10p(7)-9-(9)p7-(10)-10-12-(12)-10p7-10-10-(10)p9p7-9-x-|
|-------------------------------------------------------------------x-|
|---------------------------------------------------------------------|
|---------------------------------------------------------------------|
|---------------------------------------------------------------------|


        |3-|      |3-|
   S. T S  e  S.T S  E  S. T S  S  +S  s s  S
|-----------------------------------------------|
|-12p10p7-10-10p9p7-10S12p10p7-10-(10)-9-7-10---|
|-----------------------------------------------|
|-----------------------------------------------|
|-----------------------------------------------|
|-----------------------------------------------|


 Break
  N.C.
  a E E Q  H      Wx3
|-7h9-----------|--------|
|---------------|--------|
|---------------|--------|
|---------------|--------|
|---------------|--------|
|---------------|--------|


   Instrumental
    N.C.
    Gtr I
     S  S  S  S  +E   S  S  S  S    S  S  +E  E
||----------------------------------------------|
||o--------------------------------12-----------|
||---------------------------------12-14-(14)---|
||-----------12-(12)-12----12---------14-(14)---|
||o----10-14------------14----14----------------|
||--12------------------------------------------|
|
|   Gtr II
|                                      ~~~~~~~
|    S  S  S  S  +E   S  S  S  S a  S  S  +Q
||----------------------------------------------|
||o---------------------------------------------|
||----------------------------------------------|
||-------------------------------7s=9s=7--(7)---|
||o-----------5--(5)--5-----5-------------------|
||---0--3--7-------------7-----7----------------|


   S  S  S  S  +E   S  S  S  S    S  S  +E  E
|----------------------------------------------||
|--------------------------------12-----------o||
|--------------------------------12-14-(14)----||
|----------12-(12)-12----12---------14-(14)----||
|----10-14------------14----14----------------o||
|-12-------------------------------------------||
|
|                                    ~~~~~~~
|  S  S  S  S  +E   S  S  S  S a  S  S  +Q
|----------------------------------------------||
|---------------------------------------------o||
|----------------------------------------------||
|------------------------------7s=9s=7--(7)----||
|-----------5--(5)--5-----5-------------------o||
|--0--3--7-------------7-----7-----------------||


 Guitar Solo
  N.C.
                                            ~~~
                           |--3---|
  E    S  S  +E.    S     +S  S   S   S  S  Q
|-----------------------------------------------|
|-----12----------------------------------------|
|--------11-(11)---11b12r(11)p9-------9-----9---|
|---------------------------------------12------|
|-----------------------------------------------|
|-----------------------------------------------|
|
|                                        ~~~~~~
| S S  S  S  +E  S  S      S    S   a S  S +Q
|-----------------------------------------------|
|-----------------------------------------------|
|-----------------------------------------------|
|-----------------------------------7s9s=7-(7)--|
|---------5--(5)-5---------5--------------------|
|-0-3--7------------7-----------7---------------|


                 ~~~~
  E    S  S     +E  S  S  +S  S   S S  Q
|------------------------------------------|
|-----12-----------------------------------|
|--------11b12r(11)-9-11-(11)-9---9-9--9---|
|------------------------------------------|
|------------------------------------------|
|------------------------------------------|
|
|                                   ~~~~~~
| S S  S  S     +E  S  S   S  S a S S +Q
|------------------------------------------|
|------------------------------------------|
|------------------------------------------|
|-------------------------------7s9s7-(7)--|
|---------5-----(5)-5------5---------------|
|-0-3--7---------------7------7------------|


                          ~~~~~                       ~~~
  E    S  S      a       +E   +E    a  T T  S   S  S  Q
|---------------------------------------------------------|
|-----12--------------------------------------------------|
|--------11b12r(11)b12==(11)r(11)---9h11p9------9-----9---|
|------------------------------------------12-----12------|
|---------------------------------------------------------|
|---------------------------------------------------------|
|
|                                                  ~~~~~~
| S S  S  S              +E    S  S    S    S a S  S +Q
|---------------------------------------------------------|
|---------------------------------------------------------|
|---------------------------------------------------------|
|---------------------------------------------7s9s=7-(7)--|
|---------5--------------(5)---5-------5------------------|
|-0-3--7--------------------------7---------7-------------|


          ~~~~~~~~~~~~                        ~~~
  E    S  S      +E   +E    a  T T  S   S  S  E.  S
|----------------------------------------------------|
|-----12-----------------------------------------10--|
|--------11b12==(11)r(11)---9h11p9------9-----9------|
|----------------------------------12-----12---------|
|----------------------------------------------------|
|----------------------------------------------------|
|
|                                          ~~~~~~
| S S  S  S      +E    S  S    S    S a S  S +Q
|----------------------------------------------------|
|----------------------------------------------------|
|----------------------------------------------------|
|-------------------------------------7s9s=7-(7)-----|
|---------5------(5)---5-------5---------------------|
|-0-3--7------------------7---------7----------------|


                                                     ~~~
   S  S  S     +S   +E  S  S  S     +T  T    T T  S  Q
|----12--------------------------------------------------|
|-12-----------------------------------------------------|
|-------11b12r(11)-(11)-9----11b12r(11)p9---11p9-----9---|
|-------------------------12---------------------12------|
|--------------------------------------------------------|
|--------------------------------------------------------|
|
|                                                 ~~~~~~
|  S  S  S      S   +E  S  S  S      S    a  S    S +Q
|--------------------------------------------------------|
|--------------------------------------------------------|
|--------------------------------------------------------|
|-----------------------------------------7s=9s===7-(7)--|
|---------------5---(5)-5-----5--------------------------|
|--0--3--7-----------------7---------7-------------------|


                                                     ~~~
                                |--------5--------|
   S  S  S    S +E   a  S  T T  S S    S     S    S  Q
|----12----------------------------------------------------|
|-12-------------------------------------------------------|
|-------11b12p9-(9)-11s12s11p9-11p9----------9-------9-----|
|-------------------------------------12---------12--------|
|----------------------------------------------------------|
|----------------------------------------------------------|
|
|                                              ~~~~~~~~~
|  S  S  S    S +E      S  S    S   S    a S   S    +Q
|----------------------------------------------------------|
|----------------------------------------------------------|
|----------------------------------------------------------|
|----------------------------------------7s9s==7----(7)----|
|-------------5-(5)-----5-------5--------------------------|
|--0--3--7-----------------7--------7----------------------|


   e   S S +E  S S S S   S S  S  S S S
|--------------------------------------|
|-12-----------------------------------|
|------8-9-(9)-7---7-7--------7--7---7-|
|----------------9-------9-7-------9---|
|--------------------------------------|
|--------------------------------------|
|
|                          ~~~~~~
|  S S S S +E  S S S S a S S +Q
|--------------------------------------|
|--------------------------------------|
|--------------------------------------|
|----------------------7s9s7-(7)-------|
|--------5-(5)-5---5-------------------|
|--0-3-7---------7---7-----------------|


   S  S  S     S  +E  S  S S  S   S  S  e   S  S
|----12---------------------------------------12--|
|-12----------------------------------------------|
|-------11b12-11-(11)-9----9----------------------|
|-----------------------12---12---9----12--12-----|
|-----------------------------------12------------|
|-------------------------------------------------|
|
|                                    ~~~~~~
|  S  S  S     S  +E  S  S S  S a S  S +Q
|-------------------------------------------------|
|-------------------------------------------------|
|-------------------------------------------------|
|-------------------------------7s9s=7-(7)--------|
|--------------5--(5)-5----5----------------------|
|--0--3--7---------------7----7-------------------|


   +S   E       S  E  S  T T S  S    S  S  +E.   S
|-(12)------------------------------------------12-|
|--------------------------------------------------|
|------11b12---11-11--9-11p9-9---------------------|
|------------------------------12------------------|
|-----------------------------------12s14-(14)\----|
|--------------------------------------------------|
|
|                                       ~~~~~~~~
|   S   S    S  S +E  S  S   S  S a  S  S  +Q
|--------------------------------------------------|
|--------------------------------------------------|
|--------------------------------------------------|
|---------------------------------7s=9s=7--(7)-----|
|---------------5-(5)-5------5---------------------|
|---0---3----7-----------7------7------------------|


   +S   T  T S  S  +E   S  S     +S  S    S S +E.  S
|-(12)-----------------------------------------------|
|------12--------------------------------------------|
|---------11p9-11-(11)-11-11b12r(11)-9------9-(9)-12-|
|----------------------------------------12----------|
|----------------------------------------------------|
|----------------------------------------------------|
|
|                                           ~~~~~~
|   S   S    S  S  +E   S  S      S  S a  S S +Q
|----------------------------------------------------|
|----------------------------------------------------|
|----------------------------------------------------|
|--------------------------------------7s=9s7-(7)----|
|---------------5--(5)--5---------5------------------|
|---0---3----7-------------7---------7---------------|


                                            ~~~~~~
   S  S  S      +S   +E  S  S S  S       +S S +Q
|----12--------------------------------------------|
|-12-----------------------------------------------|
|-------11b13==(11)r(11)-9----9-11b12r==(11)9-(9)--|
|--------------------------11----------------------|
|--------------------------------------------------|
|--------------------------------------------------|
|
|                                           ~~~~~~
|  S  S  S       S   +E  S  S S  S    a   S S +Q
|--------------------------------------------------|
|--------------------------------------------------|
|--------------------------------------------------|
|-------------------------------------7s==9s7-(7)--|
|----------------5---(5)-5----5--------------------|
|--0--3--7------------------7----7-----------------|


                                       ~~~~~~~
   S  S  S     S  +E  S  S S  S  a  S  S  +E  E
|----12-----------------------------------------|
|-12--------------------------------------------|
|-------11b12-11-(11)-9----9----------12-(12)---|
|-----------------------12---12-12s14-----------|
|-----------------------------------------------|
|-----------------------------------------------|
|
|                                      ~~~~~~~
|  S  S  S     S  +E  S  S S  S  a  S  S  +Q
|-----------------------------------------------|
|-----------------------------------------------|
|-----------------------------------------------|
|--------------------------------7s=9s=7--(7)---|
|--------------5--(5)-5----5--------------------|
|--0--3--7---------------7----7-----------------|


                                       ~~~~~~~
   S  S  S     S  +E  S  S  S  S    S  S  +Q
|----12----------------------------------------|
|-12-------------------------------------------|
|-------11b12-11-(11)-9------------12----------|
|-----------------------12-12s14------14-(14)--|
|----------------------------------------------|
|----------------------------------------------|
|
|                                      ~~~~~~~
|  S  S  S     S  +E  S  S  S  S a  S  S  +Q
|----------------------------------------------|
|----------------------------------------------|
|----------------------------------------------|
|--------------------------------7s=9s=7--(7)--|
|--------------5--(5)-5-----5------------------|
|--0--3--7---------------7-----7---------------|


   S  S  S     S  +E  S  S S S    S  S  +Q
|----12--------------------------------------|
|-12-----------------------------12s14-(14)--|
|-------11b12-11-(11)-9----9-----12s14-(14)--|
|-----------------------12---9---------------|
|--------------------------------------------|
|--------------------------------------------|
|
|                                    ~~~~~~~
|  S  S  S     S  +E  S  S S S a  S  S  +Q
|--------------------------------------------|
|--------------------------------------------|
|--------------------------------------------|
|------------------------------7s=9s=7--(7)--|
|--------------5--(5)-5----5-----------------|
|--0--3--7---------------7---7---------------|


   S  S  S S +E.   S  E      S  S  +E   s  S
|----12--------------------------------------|
|-12-----------------------------------14-12-|
|-------11-9-(9)-----12-----12h14-(14)-------|
|------------------9-------------------------|
|--------------------------------------------|
|--------------------------------------------|
|
|                               ~~~~~~~
|  S  S  S S +E  S S  S S a  S  S  +Q
|--------------------------------------------|
|--------------------------------------------|
|--------------------------------------------|
|-------------------------7s=9s=7--(7)-------|
|----------5-(5)-5----5----------------------|
|--0--3--7---------7----7--------------------|


   S  S  S     S  +E  S S  E      S  S  +E   s  S
|----12-------------------------------------------|
|-12-----------------------------12s14-(14)-12-12-|
|-------11b12-11-(11)-9---12-----12s14-(14)-------|
|-----------------------9-------------------------|
|-------------------------------------------------|
|-------------------------------------------------|
|
|                                    ~~~~~~~
|  S  S  S     S  +E  S S  S S a  S  S  +Q
|-------------------------------------------------|
|-------------------------------------------------|
|-------------------------------------------------|
|------------------------------7s=9s=7--(7)-------|
|--------------5--(5)-5----5----------------------|
|--0--3--7--------------7----7--------------------|


   S  S  S     +S   +E  S  S  E      S  S  +S   E  S
|----12-------------------------------------------------|
|-12--------------------------------12s14-(14)----15b17-|
|-------11b12r(11)-(11)-9----12-----12s14-(14)-12-------|
|-------------------------12----------------------------|
|-------------------------------------------------------|
|-------------------------------------------------------|
|
|                                       ~~~~~~~
|  S  S  S      S   +E  S  S  S S a  S  S  +Q
|-------------------------------------------------------|
|-------------------------------------------------------|
|-------------------------------------------------------|
|---------------------------------7s=9s=7--(7)----------|
|---------------5---(5)-5-----5-------------------------|
|--0--3--7-----------------7----7-----------------------|


    ~~~~
   +Q         S   s S  S S  e      S  E  S  S
|------------12-----------------------------------|
|-(15)-----------14---12-------------------15b17--|
|----------------14--------12-----12--------------|
|------------------------------------14-----------|
|-------------------------------------------------|
|-------------------------------------------------|
|
|                                  ~~~~~~
|   S  S S S +E     S  S S  S a S  S +Q
|-------------------------------------------------|
|-------------------------------------------------|
|-------------------------------------------------|
|-----------------------------7s9s=7-(7)----------|
|----------5-(5)----5----5------------------------|
|---0--3-7-------------7----7---------------------|


    ~~~~~~~~~~~~~~
   +Q         +S   T  T  S  s  T      +S.      S  S  E   S  S
|--------------------------12------------------------------------|
|-(15)-------(15)-12------------------------------------12-15b17-|
|--------------------14p12----14pb16r(14)-----12-----------------|
|------------------------------------------------14-14-----------|
|----------------------------------------------------------------|
|----------------------------------------------------------------|
|
|                                                 ~~~~~~
|   S  S S S  +E         S  S  S          S a  S  S +Q
|----------------------------------------------------------------|
|----------------------------------------------------------------|
|----------------------------------------------------------------|
|-------------------------------------------7s=9s=7-(7)----------|
|----------5--(5)--------5-----5---------------------------------|
|---0--3-7------------------7-------------7----------------------|


    ~~~~
   +Q         S   T  T  S  s  e    a  S  S  +E.  S
|-------------------------12--------------------------|
|-(15)-----------12-----------------------------15b17-|
|-------------------14-12---------12s14s12-(12)-------|
|----------------------------12---12s14s12-(12)-------|
|-----------------------------------------------------|
|-----------------------------------------------------|
|
|                                        ~~~~~~~
|   S  S S S +E         S  S  S S  a  S  S  +Q
|-----------------------------------------------------|
|-----------------------------------------------------|
|-----------------------------------------------------|
|----------------------------------7s=9s=7--(7)-------|
|----------5-(5)--------5-----5-----------------------|
|---0--3-7-----------------7----7---------------------|


    ~~~~
   +Q         S   T  T  S  s  E      S  S  +E   e
|----------------12-------12----------------------|
|-(15)--------------15p12-----------12s14-(14)-12-|
|----------------------------12-----12s14-(14)----|
|-------------------------------------------------|
|-------------------------------------------------|
|-------------------------------------------------|
|
|                                       ~~~~~~~
|   S  S S S +E         S  S  S S a  S  S  +Q
|-------------------------------------------------|
|-------------------------------------------------|
|-------------------------------------------------|
|---------------------------------7s=9s=7--(7)----|
|----------5-(5)--------5-----5-------------------|
|---0--3-7-----------------7----7-----------------|


  S S S S  E  S S S T T   E    E  e
|---0-0-0--0--0---0-0-0---3----5--0--|
|-0-----------0-0---------3----5-----|
|-------------------------4----6-----|
|------------------------------------|
|------------------------------------|
|------------------------------------|
|
|                           ~~~~~~
| S S S S +E  S S S S   a S S +Q
|------------------------------------|
|------------------------------------|
|------------------------------------|
|-----------------------7s9s7-(7)----|
|-------5-(5)-5---5------------------|
|-0-3-7---------7---7----------------|


  a S S S S  E  S S E     E   a  Q
|-0---0-0-0--0--0-0-3-----3---3s=5\--|
|-3s5-5-5-5--5--5-0-3-----3---3s=5\--|
|-------------------4-----4---4s=6\--|
|------------------------------------|
|------------------------------------|
|------------------------------------|
|
|                           ~~~~~~~~
|   S S S S +E  S S S S a S S   +Q
|------------------------------------|
|------------------------------------|
|------------------------------------|
|-----------------------7s9s7---(7)--|
|---------5-(5)-5---5----------------|
|---0-3-7---------7---7--------------|


    s  S  S  S  E   S  S  a  S  S    E    a  E   S S
|--------------------------------------------------0--|
|-----------------------------------------------------|
|-----12-12-------------------------12----------14----|
|-/14-------14-14--12----12s14-12---12---12s14--------|
|---------------------14-14s16-14---14---14s16--------|
|-----------------------------------------------------|
|
|                                      ~~~~~~~~~
|   S  S  S  S +E   S  S     S  S a  S S    +Q
|-----------------------------------------------------|
|-----------------------------------------------------|
|-----------------------------------------------------|
|---------------------------------7s=9s7----(7)-------|
|------------5-(5)--5--------5------------------------|
|---0--3--7------------7--------7---------------------|


  a S S S S  S  S S S e     E    E  S S
|-----3-3----3--------------3s===5--5p0-|
|-3s5-----5-----5-0-5-0-----3s===5------|
|---------------------------4s===6------|
|---------------------------------------|
|---------------------------------------|
|---------------------------------------|
|
|                             ~~~~~~
|   S S S S +E    S S S S a S S +Q
|---------------------------------------|
|---------------------------------------|
|---------------------------------------|
|-------------------------7s9s7-(7)-----|
|---------5-(5)---5---5-----------------|
|---0-3-7-----------7---7---------------|


  E5                        G   A
                                    |-3-|
  T T S S T T S T T S S E   S S E S T T T
|-5p3p0-5-5p3p0-------------3-3s5-5-5p3p0--|
|---------------5p3p0-5-3-----3s5----------|
|------------------------------------------|
|------------------------------------------|
|------------------------------------------|
|------------------------------------------|
|
| q           S S   S S S S E   E E
|------------------------------------------|
|---------------------------3---5-0--------|
|---------------------------4---6-0--------|
|---------------------------5---7----------|
|---------------2-----2--------------------|
|-0-------------0-----0-0-0----------------|


  E5                        G A         E5                      G A
                      |-3-|
  s S T T S T T S S S E   S E E  S  S   S T T S S s T T S S s S E E S S
|-3---5p3p0---------------------------|-----------5-3p0---------3-5------|
|---0-------5p3p0-0-3s5---0-0-3-[3]-3p|=0-5p3p0-5-------3-0-5-0-3-5---0--|
|-------------------------------------|-------------------------4-6-0-0--|
|-------------------------------------|----------------------------------|
|-------------------------------------|----------------------------------|
|-------------------------------------|----------------------------------|
|
| q         S   S S S S S   E E  E      q         S S   S S S S E E E
|-------------------------------------|----------------------------------|
|---------------------------3-5--0----|-------------------------3-5-0----|
|---------------------------4-6--0----|-------------------------4-6-0----|
|---------------------------5-7-------|-------------------------5-7------|
|---------------2---2-----------------|-------------2-----2--------------|
|-0-------------0---0-0-0-------------|-0-----------0-----0-0-0----------|


  E5                    G     A
                    ~
  S T T S s S S S S E   S S a S S S   S
|---------------------------------------|
|-0-5p3p0-5-5p3-3---3---3-3-3s5-5-------|
|-----------------4-4---4-4-4s6-6-------|
|---------------------------------------|
|-----------------------------------/14-|
|---------------------------------------|
|
| q         S S S S S S E     E   E
|---------------------------------------|
|-----------------------3-----5---0-----|
|-----------------------4-----6---0-----|
|-----------------------5-----7---------|
|-------------2---2---------------------|
|-0-----------0---0-0-0-----------------|


  E5
   S   s  s  S  E    S.    T  S     +S   E  E    E
|---------------------------------------------------|
|---------------------------------------12-14-------|
|-12--------14-12---------12-12b14r(12)-12-14s==12--|
|----/12-14-14------14------------------12-14-------|
|---------------------------------------------------|
|---------------------------------------------------|
|
|  q            S S  S  S    +S      S   E  S S  E
|---------------------------------------------------|
|---------------------------------------------------|
|---------------------------------------------------|
|--2--------------2-----2----(2)-----2-----------2--|
|--2--------------2-----2----(2)-----2--------------|
|--0--------------0-----0----(0)-----0------0-3-----|


  E5
   S  S  a  S  S  E    S  S  s   S  E  E    E
|---------------------------------------------|
|-------------------------------15-12-14s==12-|
|---------------------------12--12-12-14s==12-|
|----------------12---14-12--------12-14s==12-|
|----10-12s14-14------------------------------|
|-12------------------------------------------|
|
|  q              S S  S  S +S   S  E  S S  E
|---------------------------------------------|
|---------------------------------------------|
|---------------------------------------------|
|--2----------------2-----2-(2)--2----------2-|
|--2----------------2-----2-(2)--2------------|
|--0----------------0-----0-(0)--0-----0-3----|


   T  T  T  T  S  S  E    S  S  S   S  E  E    S  S
|---------------------------------------------------|
|-------------------------------------12-14---------|
|-14p12-------------------------------12-14---------|
|-------14p12-12---------14--------14-12-14---12-11-|
|----------------14s12------12s14-------------12-11-|
|---------------------------------------------------|
|
|  q                 S S  S  S +S   S  E  S S  E
|---------------------------------------------------|
|---------------------------------------------------|
|---------------------------------------------------|
|--2-------------------2-----2-(2)--2----------2----|
|--2-------------------2-----2-(2)--2---------------|
|--0-------------------0-----0-(0)--0-----0-3-------|


  E5
  S  S  S  S  E    E    S   S  E  S  S E
|----------------------------------------|
|----------------------12-----12-14-14-x-|
|----------------------12-----12-14-14-x-|
|---------12-12---14-------12-12-14-14-x-|
|---11-14--------------------------------|
|----------------------------------------|
|
| q           S S  S S +S   S  E  S  S E
|----------------------------------------|
|----------------------------------------|
|----------------------------------------|
|-2-------------2----2-(2)--2----------2-|
|-2-------------2----2-(2)--2------------|
|-0-------------0----0-(0)--0-----0--3---|


                            |--3--|
  E  S  S  S  S E    S   S  S  S  S  E    E
|-------------------------------------------|
|---14-12-14-12------------12h14p12-12s==14-|
|---14-12-14-12------------12h14p12-12s==14-|
|-----------------------12------------------|
|-------------------------------------------|
|-0-----------------------------------------|
|
| q        S  S S S +S   S  E        S S  E
|-------------------------------------------|
|-------------------------------------------|
|-------------------------------------------|
|-2-----------2---2-(2)--2----------------2-|
|-2-----------2---2-(2)--2------------------|
|-0-----------0---0-(0)--0-----------0-3----|


  E5
  Q  S S S S +E    E S S E   E E S S S S +S  S E a E   E
|--------------------------|-----------------------------|
|------------------3-5-5---|-------------------3-3s5-----|
|------4---4-(4)---4-6-6---|---x-------4-(4)-4-4-4s6-----|
|------2---2-(2)-----------|---x-------2-(2)-2-----------|
|------2---2-(2)-----------|---x---4---2-(2)-2-----------|
|-0----0---0-(0)-----------|-0-----4---0-(0)-0-----------|
|
| q  S S S S +S  S E S S E   q   S S S S +S  S E   S S E
|--------------------------|-----------------------------|
|--------------------------|-----------------------------|
|--------------------------|-----------------------------|
|-2----2---2-(2)-2-------2-|-2-----2---2-(2)-2---------2-|
|-2----2---2-(2)-2---------|-2-----2---2-(2)-2-----------|
|-0----0---0-(0)-0---0-3---|-0-----0---0-(0)-0-----0-3---|


  E5
  E E S E   S  E    E Q       E E S S S S  E    E E   +E
|-------------------3-5-----|-----------------------------|
|-------------------3-5-----|-------------------3-5---(5)-|
|--------------4----4-6-----|-4-----4---4-------4-6---(6)-|
|-----------2--2------------|-2-----2---2-------4-7---(7)-|
|-----------2--2------------|-2-----2---2-------5-7---(7)-|
|-0---0-0---0--0------------|-0-----0---0-----------------|
|
| q   S S S S +S  S E S S E   q   S S S S +S  S E S S  E
|---------------------------|-----------------------------|
|---------------------------|-----------------------------|
|---------------------------|-----------------------------|
|-2-----2---2-(2)-2-------2-|-2-----2---2-(2)-2--------2--|
|-2-----2---2-(2)-2---------|-2-----2---2-(2)-2-----------|
|-0-----0---0-(0)-0---0-3---|-0-----0---0-(0)-0---0-3-----|


 Outro
  N.C.
   S  S  S  S  +E   S  S  S  S    E  E  E
|-----------------------------------------|
|--------------------------------12s14s12-|
|--------------------------------12s14s12-|
|----------12-(12)-12----12------12s14s12-|
|----10-14------------14----14------------|
|-12--------------------------------------|
|
|  S  S  S  S  +E   S  S  S  S a  E  Q
|-----------------------------------------|
|-----------------------------------------|
|-----------------------------------------|
|------------------------------7s=9s=7----|
|-----------5--(5)--5-----5---------------|
|--0--3--7-------------7-----7------------|


   S  S  S  S  +E   S    S  S  S    E    E   E
|----------------------------------------------|
|----------------------------------12s==14s=12-|
|----------------------------------12s==14s=12-|
|----------12-(12)-12------12------12s==14s=12-|
|----10-14--------------14----14---------------|
|-12-------------------------------------------|
|
|                                     ~~~~~~
|  S  S  S  S  +E   T T  S  S  S a  S S +Q
|----------------------------------------------|
|----------------------------------------------|
|----------------------------------------------|
|--------------------------------7s=9s7-(7)----|
|-----------5--(5)--7p5-----5------------------|
|--0--3--7---------------7-----7---------------|


   S  S  S  S  +Q       +E       E    E  E
|------------------------------------------|
|-------------------------------12s==14s12-|
|----------12-(12)-----(12)-----12s==14s12-|
|----------12-(12)-----(12)-----12s==14s12-|
|----10-14---------------------------------|
|-12---------------------------------------|
|
|                                     ~~~
|  S  S  S  S  +E  S S   S  S a  E a  Q
|------------------------------------------|
|------------------------------------------|
|------------------------------------------|
|-----------------------------7s=9-9s=7----|
|-----------5--(5)-5-----5-----------------|
|--0--3--7-----------7------7--------------|


   S  S  S  S  +E   S  S  S  S    E  E  E
|------------------------------------------|
|--------------------------------12s14s12--|
|--------------------------------12s14s12--|
|----------12-(12)-12----12------12s14s12--|
|----10-14------------14----14-------------|
|-12---------------------------------------|
|
|  S  S  S  S  +E   S  S  S  S a  E  Q
|------------------------------------------|
|------------------------------------------|
|------------------------------------------|
|------------------------------7s=9s=7-----|
|-----------5--(5)--5-----5----------------|
|--0--3--7-------------7-----7-------------|


   S  S  S  S  +E   S    S  S  S    E    E   E    S  S  S  S  +E   S    S  S  S    E    E  E
|----------------------------------------------|---------------------------------------------|
|----------------------------------12s==14s=12-|----------------------------------12s==14s12-|
|----------------------------------12s==14s=12-|----------------------------------12s==14s12-|
|----------12-(12)-12------12------12s==14s=12-|----------12-(12)-12------12------12s==14s12-|
|----10-14--------------14----14---------------|----10-14--------------14----14--------------|
|-12-------------------------------------------|-12------------------------------------------|
|
|                                     ~~~~~~                                            ~~~
|  S  S  S  S  +E   T T  S  S  S a  S S +Q        S  S  S  S  +E   T T  S  S  S a  E a  Q
|----------------------------------------------|---------------------------------------------|
|----------------------------------------------|---------------------------------------------|
|----------------------------------------------|---------------------------------------------|
|--------------------------------7s=9s7-(7)----|--------------------------------7s=9-9s=7----|
|-----------5--(5)--7p5-----5------------------|-----------5--(5)--7p5-----5-----------------|
|--0--3--7---------------7-----7---------------|--0--3--7---------------7-----7--------------|


   S  S  S  S  +E   S    S  S  S    E    E   E
|----------------------------------------------*|
|----------------------------------12s==14s=12-*|
|----------------------------------12s==14s=12-*|
|----------12-(12)-12------12------12s==14s=12-*|
|----10-14--------------14----14---------------*|
|-12-------------------------------------------*|
|
|                                     ~~~~~~
|  S  S  S  S  +E   T T  S  S  S a  S S +Q
|----------------------------------------------*|
|----------------------------------------------*|
|----------------------------------------------*|
|--------------------------------7s=9s7-(7)----*|
|-----------5--(5)--7p5-----5------------------*|
|--0--3--7---------------7-----7---------------*|


Duration Legend
---------------
W - whole; H - half; Q - quarter; E - 8th; S - 16th; T - 32nd; X - 64th; a - acciaccatura
+ - note tied to previous; . - note dotted; .. - note double dotted
Uncapitalized letters represent notes that are staccato (1/2 duration)
Irregular groupings are notated above the duration line
Duration letters will always appear directly above the note/fret number it represents the
duration for.  Duration letters with no fret number below them represent rests.  Multi-
bar rests are notated in the form Wxn, where n is the number of bars to rest for.  Low
melody durations appear below the staff

Tablature Legend
----------------
 h   - hammer-on
 p   - pull-off
 b   - bend
 pb  - pre-bend
 r   - bend release (if no number after the r, then release immediately)
 /\  - slide into or out of (from/to "nowhere")
 s   - legato slide
 S   - shift slide
  - natural harmonic
[n]  - artificial harmonic
n(n) - tapped harmonic
 ~   - vibrato
 tr  - trill
 T   - tap
 TP  - trem. picking
 PM  - palm muting
\n/  - tremolo bar dip; n = amount to dip
 \n  - tremolo bar down
 n/  - tremolo bar up
/n\  - tremolo bar inverted dip
 =   - hold bend; also acts as connecting device for hammers/pulls
 <>  - volume swell (louder/softer)
 x   - on rhythm slash represents muted slash
 o   - on rhythm slash represents single note slash

Misc Legend
-----------
 |  - bar
||  - double bar
||o - repeat start
o|| - repeat end
*|  - double bar (ending)
 :  - bar (freetime)
 $  - Segno
 &  - Coda
Tempo markers -  = BPM(8/16=s8/s16), where s8 = swing 8ths, s16 = swing 16ths


***************************************************************************************
* Generated using Power Tab Editor by Brad Larsen - http://powertab.guitarnetwork.org *
***************************************************************************************
Related for Apostrophe tab