Song name
# A B C D E F G H I J K L M N O P Q R S T U V W X Y Z

Frank Zappa - Take Your Clothes Off When You Dance tab

From "We're Only in It for the Money" by Frank Zappa & The Mothers of Invention (1968).
Based on the 2005 Mobile Fidelity Sound Lab CD.
Tabbed by CapitalQ (onevision@gmail.com).

Beginning at 0:32...

e|-------------------------------------------------|
B|-------------------------------------------------|
G|---------------------------------7-4---4-7-4---4-|  Repeat 2X
D|---5-7---5-7---5-7---5-7---5-7-5-----7-------7---|
A|-7-----7-----7-----7-----7-----------------------|
E|-------------------------------------------------|

e|-------------------------------------------------|
B|-------------------------------------------------|
G|-------------------------------4-7-4-------------|
D|-8-8-7-7-5-5-4-4-5-5-7-7-8-8-5-------7-5---------|
A|-----------------------------------------5-7-----|
E|-------------------------------------------------|

e|-------------------------------------------------|
B|-------------------------------------------------|
G|-------------------------4-----------------------|
D|---5-7---5-7---5-7---5-7---7-5-7-5---5-4-3-2-----|
A|-7-----7-----7-----7-----------------------------|
E|-------------------------------------------------|
Tap to rate this tab
# A B C D E F G H I J K L M N O P Q R S T U V W X Y Z