Guitaretab - guitar tabs
Song name
# A B C D E F G H I J K L M N O P Q R S T U V W X Y Z

Frank Zappa - A Little Green Rosetta tab

----------------------------------------------------------------------------
	            A LITTLE GREEN ROSETTA - Frank Zappa
----------------------------------------------------------------------------
Tabbed by: kenezzar (Kenneth Dale Harris IV)
Email: kenny@kdharris.net

Tuning: Standard
This is the main vibraphone part.
("A Little Green Rosetta") 
e|----------------------|--------------------| Play this 2times, then play 
B|----------------------|--------------------|the next part 2 times.
G|----------------------|--7---9--14/12~-----|
D|----------------------|--7--10--14/12~-----|
A|--5h7p5-7/10-7-7\5~~--|--------------------|
E|----------------------|--------------------|
[ Tab from: http://www.guitaretab.com/f/frank-zappa/69861.html ]
e|----------------------|--------------------|
B|----------------------|--------------------|
G|----------------------|--5--7---9--5~------|
D|----------------------|--5--7--10--5~------|
A|--5h7p5-7/10-5-5\3~~--|--------------------|
E|----------------------|--------------------|
"its better, it's better, it's really getting better, it's better, it's
better, it's better with a little green rosetta."
e|-----------------------------------------------------------------------|
B|-----------------------------------------------------------------------|
G|-----------------------------------------------------------------------|
D|-----------------------------------------------------------------------|
A|--5-7-5--5-7-5--5-7/10-7-5-7-5--5-7-5--5-7-5--5-7/10-7-5-7-5-5h7~-5\3~~|
E|-----------------------------------------------------------------------|
This is pretty much the whole song. 

| /  slide up                    My favorite lyrics by: Frank Zappa
| \  slide down             "This is a stupid song, but thats the way
| h  hammer-on               I like it."
| p  pull-off
| ~  vibrato
| +  harmonic
| x  Mute note
=============================================================================
Related for A Little Green Rosetta tab
×
A Little Green Rosetta