Song name
# A B C D E F G H I J K L M N O P Q R S T U V W X Y Z

Frank Zappa - Kaiser Rolls tab

----------------------------------------------------------------------------
			   Kaiser Rolls - Frank Zappa
----------------------------------------------------------------------------
Tabbed by: Kennezar (Kenneth Dale Harris IV)
Email: kenny4@kdharris.net
 
Tuning: Standard
Opening Riff:             |1st & 3rd Fill             | 2nd Fill
e|------------------------|----3-/-/-/-10-10-10-10~---|----------------|
B|---7h8--x---------(3)---|----3-/-/-/-10-10-10-10~---|----------------|
G|---7----x--7-7~----4~---|----4-/-/-/-11-11-11-11~---|-9-7-9--9-7-9---|
D|--------x--7-7~----5~---|---------------------------|-9-7-9--9-7-9---|
A|------------------------|---------------------------|----------------|
E|------------------------|---------------------------|----------------|
The verse is just a bass line, just play the above for the guitar.

e|---------------------|-------------------------------|
B|-12-10-8-10-8-8-8\6~-|-------------------------------|
G|-12-10-8-10-8-8-8\6~-|-------------------------------|
D|---------------------|-0-0-0-0-0-5^6-0-5^6-5^6-------|
A|---------------------|-------------------------------|
E|---------------------|-------------------------------|
Play each string individually and slowly slide up the neck.
e|--4-5-6-7-8-9--10-11-12-13-14-15-16---|
B|--4-5-6-7-8-9--10-11-12-13-14-15-16---|
G|--5-6-7-8-9-10-11-12-13-14-15-16-17---|
D|--------------------------------------|
A|--------------------------------------|
E|--------------------------------------|
"Kaiser Rolls, Kaiser Rolls"
e|--------------------------------------|
B|-12-12--10-10-10--7-7--8~-------------|
G|-12-12--11-11-11--7-7--9~-------------|
D|-12-12--12-12-12--7-7--9~-------------|
A|--------------------------------------|
E|--------------------------------------|
That's pretty much it!
| /  slide up
| \  slide down
| h  hammer-on
| p  pull-off
| ~  vibrato
| +  harmonic
| x  Mute note
============================================================================
Tap to rate this tab
# A B C D E F G H I J K L M N O P Q R S T U V W X Y Z