Song name
# A B C D E F G H I J K L M N O P Q R S T U V W X Y Z

Frank Zappa - In France tab

----------------------------------------------------------------------------
			    In France - Frank Zappa
----------------------------------------------------------------------------
Tabbed by: Kennezar (Kenneth Dale Harris IV)
Email: kenny4@kdharris.net

Tuning: Standard
Main Riff: "E"
e|-------------0~~~~-----------------|
B|-----------------------------------|
G|-------------2^4^2p0---------------|
D|---------2~-----------2~-----------|
A|-----------------------------------|
E|-0-0-3^4---------------------------|
Filling: "A"
e|-------------------------------|
B|-------------------------------|
G|-------------------------------|
D|---------5-4-2-----------------|
A|-0-0-3-4-------3^4-------------|
E|-------------------------------|

e|--------------------------------------------0~~~~---------|
B|-4-4-4-4-4--2-2-2-2-2---2---------------------------------|
G|-4-4-4-4-4--2-2-2-2-2---2-------------------2^4^2p0-------|
D|-4-4-4-4-4--2-2-2-2-2---2----------------2~----------2~---|
A|-2-2-2-2-2--0-0-0-0-0---0---------------------------------|
E|---------------------------3^4---0-0-3^4------------------|
Ending:
e|--------------------------------|
B|--------------------------------|
G|--------------------------------|
D|--------------------------------|
A|-7-7-5-5-4-4-3-3-2-4-6-7~~~~~~--|
E|--------------------------------|
Tap to rate this tab
# A B C D E F G H I J K L M N O P Q R S T U V W X Y Z